» » »

Misc Television, Goosebumps Tabs (ver.2)

Artists:  A B C D E F G H I J K L M N O P Q R S T U V W X Y Z # 

Goosebumps Tabs (ver.2)

Misc Television Tabs
Rating:
0/5 (0 votes)
Hard to play? Try these video lessons and learn fast.
                (Theme)
tab for my jam to the Goosebumps them as can be heard here -

Tuning: Dropped D.  DADGBE

 0:00 - 0:09  intro   
e|-------5-------|
B|---5-6---5-6---|
G|-7-------------|
D|---------------|
A|---------------|
D|---------------|

 main riffs played a few times throughout the song.
|---------------|---------------------------------|
|---------------|---------------------------------|
|---7-7-5-5-4---|---------------------------------|
|---------------|---------------------------------|
|---5-5-3-3-2---|---------------------------------|
|-0-------------|-1-0-3-0-4-0-0-3-0-0-4-0-1-0-3-0-|

   0:32 - 0:42
|---------------|---------------------|
|---------------|---------------------|
|---------------|---------------------|
|---------------|-6-5-3--3------------|
|--5--6--9--6---|----------6-5--5-3-2-|
|--5--6--9--6---|---------------------|


  0:52 - 0:56
|---------------------------------|----------------|
|---------------------------------|----------------|
|---------------------------------|----------------|
|---------------------------------|----------------|
|---------------------------------|-6-5-3--3-1-0---|
|-4-3-6-3-7-3-3-6-3-3-7-3-4-3-6-3-|----------------|


enjoy.
            

comments powered by Disqus
↑ Back to top | Misc Television Tabs for Goosebumps. Lyrics for acoustic guitar and electric guitar. Tablatures and chords are parodies/interpretations of the original songs. You may use it for private study, scholarship, research or language learning purposes only