>
 >
Gilligans Island Theme

Gilligans Island Theme Guitar Tabs

Misc Television - Gilligans Island Theme chords, tabs, tablatures, lyrics

Guitar lessons | Add/correct | Request | Top 50 tabs Artists:  A B C D E F G H I J K L M N O P Q R S T U V W X Y Z 0-9

Gilligans Island Theme Guitar Tabs – Misc Television

CD, Sheet music, Poster

Do you like Gilligans Island Theme? Share with your friends now
ChordsTabsTabs v2Ukulele
"Gilligan's Island" Theme ("The Ballad of Gilligan's Isle")
      (Sherwood Schwartz - George Wile)

Verse 1:

     Dm      C        Dm      C        Dm      C        F   C/E Dm
v    v   v   v   v    v   v   v   v    v   v   v   v    v   v   v   v   
----|----------------|----------------|----------------|----------------|
----|----------------|----------------|---------1-1----|----------------|
2---|--2-2-220-------|--222-2-0-------|--2-2-2-0-------|----------------|
----|0---------------|0---------------|0-------------0-|3-3-2---0-----0-|
----|----------3-3--3|--------------3-|----------------|------3---------|
----|----------------|----------------|----------------|----------------|

Verse 2 (key change from Dm to Ebm):

     Ebm     Db       Ebm     Db       Ebm     Db       Gb  Db/F Ebm
v    v   v   v   v    v   v   v   v    v   v   v   v    v   v   v   v   
----|----------------|----------------|----------------|----------------|
----|----------------|----------------|---------2-2----|----------------|
----|--333-3-1-------|--3-3-3-1-------|--3-3-3-1-------|----------------|
-(0)|1---------------|1---------------|1-------------11|4---3---1-----1-|
----|----------4-4--4|--------------4-|----------------|------4---------|
----|----------------|----------------|----------------|----------------|

Gb  Db/F Ebm
v   v   v   v   
----------------|
----------------|
----------------|
4---3---1-------|
------4---------|
----------------|

Verse 3 (key change from Ebm to Em):

             Em      D        Em      D        Em      D        G   D/F# Em
v    v   v   v   v    v   v   v   v    v   v   v   v    v   v   v   v   
----|----------------|----------------|----------------|----------------|
----|----------------|----------------|----------3-3---|----------------|
----|--4-4-4-2-------|4-4-4-4-2-------|--4444442-------|00--------------|
--1-|2--------0-0---0|--------------0-|2-------------2-|----4-0-2-----2-|
----|----------------|----------------|----------------|----------------|
----|----------------|----------------|----------------|----------------|

G   D/F# Em
v   v   v   v   
----------------|
----------------|
00--------------|
----4-0-2-----2-|
----------------|
----------------|

Verse 4 (key change from Em to Fm):

     Fm      Eb       Fm      Eb       Fm               Eb
v    v   v   v   v    v   v   v   v    v   v   v   v    v   v   v   v   
----|----------------|----------------|----------------|----------------|
----|----------------|----------------|----------------|----------------|
----|--5-5-553-------|--5-5-5-3-------|--3-5---------3-|5---------------|
--2-|3---------1-1-1-|3-------------1-|3---------------|--1-1---------1-|
----|----------------|----------------|----------------|----------------|
----|----------------|----------------|----------------|----------------|

Fm               Eb               Fm    Eb         Fm      Eb
v   v   v   v    v   v   v   v    v   v   v   v    v   v   v   v   
----------------|----------------|----------------|----------------|
----------------|----------------|----------------|------------4---|
---55-------3-1-|3---------------|----5-3---------|--5-5---3-3-----|
3---------------|--------------1-|3-------------11|3---------------|
----------------|----------------|----------------|----------------|
----------------|----------------|----------------|----------------|

Fm      Eb       F
v   v   v   v    v   v   v   v   
--1---1---------|1---------------|
--------4-4-----|----------------|
------------5---|----------------|
----------------|----------------|
----------------|----------------|
----------------|----------------|





Comments


Popular Misc Television tabs & chords
Seinfeld Theme Bass Tabs
Beverly Hillbillies Theme Chords
Dream High Theme Chords
Christmas Is Here To Stay Snl Tabs
Family Guy - Do Her - Handful Of Peter Tabs
First Wave Theme Tabs
Inspector Gadget Theme (Intro) Tabs
James Bond Tabs
Postman Pat Theme 1 Tabs
Sniz And Fondue Tabs


Song lyrics



↑ Back to top | Tablatures and chords are parodies/interpretations of the original songs. You may use it for private study, scholarship, research or language learning purposes only
© 2014 AZChords.com Contact us | Privacy policy | DMCA | Add/correct tabs | Request tabs | Top 50 tabs