» » »

Misc Television, Gerber Commercial United Babies Tabs (ver.1)

Artists:  A B C D E F G H I J K L M N O P Q R S T U V W X Y Z # 

Gerber Commercial United Babies Tabs (ver.1)

Misc Television Tabs
 Rating:
4/5 (4 votes)
Gerber Commercial United Babies lessons Tabs too difficult? Try these video lessons and learn fast
                
I was practicing a lick while watching tv and all of a sudden BAAAAAAM, I thought of a 
this is actually really simple since it's just on 2 frets.


Riff 1
|--------------7-----|
|------7-9-7-----9---|
|9---9-------9-------|
|--------------------|
|--------------------|
|--------------------|

P1           P2        P3
|7----7------|7--7--7--|-----|
|--9---9-7---|-9--9--9-|-7---|
|---------9--|---------|---9-|
|------------|---------|-----|
|------------|---------|-----|
|------------|---------|-----|

Composition
-----------
Riff 1 x2
P1 x1
Riff 1 x3
P2 x3
P3 x1
            
Submit corrections

comments powered by Disqus
↑ Back to top | Misc Television Tabs for Gerber Commercial United Babies. Lyrics for acoustic guitar and electric guitar. Tablatures and chords are parodies/interpretations of the original songs. You may use it for private study, scholarship, research or language learning purposes only