» » »

Game Of Thrones Opening Tabs (ver.1)

Artists:  A B C D E F G H I J K L M N O P Q R S T U V W X Y Z # 

Game Of Thrones Opening Tabs (ver.1)

Misc Television
Rating:
0/5 (0 votes)

Hard to play? Try these video lessons and learn fast.
                This be our second one up till now please stay tuned :)

INTRO
   
------------------|------------------|------------------|----------------|
--1---------------|--1---------------|--1---------------|--1-------------|
---------------0--|---------------0--|---------------0--|-------------0--|
------------1-----|------------1-----|------------1-----|----------1-----|
-------3----------|-------3----------|-------3----------|-------3--------|
------------------|------------------|------------------|----------------|

------------------|------------------|------------------|----------------|
--1---------------|--1---------------|--1---------------|--1-------------|
---------------0--|---------------0--|---------------0--|-------------0--|
------------2-----|------------2-----|------------2-----|----------2-----|
-------3----------|-------3----------|-------3----------|-------3--------|
------------------|------------------|------------------|----------------|


Chorus(the cool part) 
----------------|---------------|------------------|-----------------|-----|
----------------|---------------|------------------|-----------------|-----|
----------------|---------------|------------------|-----------------|-----|
----------------|---------------|------------------|-----------------|-----|
--10~-----------|---------------|--6--8--10--------|-----------6--8--|-----|
----------------|--8------------|------------------|--8--------------|-10--|

-------|---------------|-----------------|---------------|-----------------|
-------|---------------|-----------------|---------------|-----------------|
-------|---------------|-----------------|---------------|-----------------|
-------|---------------|-----------------|---------------|-----------------|
--8----|---------------|--5--6--8--------|---------------|--6--5-----------|
-------|--6------------|-----------------|--6------------|--------8--------|



---------|--------------|------------------|-------------------|----------|
--8~-----|--------------|---------8--------|-------------------|----------|
---------|--------------|--8--10-----------|------------8--10--|--7-------|
---------|--10----------|------------------|--10---------------|----------|
---------|--------------|------------------|-------------------|----------|
---------|--------------|------------------|-------------------|----------|

---------|--------------|------------------|----------------|--------------|
---------|--------------|------------------|----------------|--------------|
--10-----|--------------|--7--8--10--------|----------------|-8--7---------|
---------|--8-----------|------------------|--8-------------|-------10-----|
---------|--------------|------------------|----------------|--------------|
---------|--------------|------------------|----------------|--------------|



---------|--------------|------------------|-------------------|----------|
--8~-----|--------------|---------8--------|-------------------|----------|
---------|--------------|--8--10-----------|------------8--10--|--7-------|
---------|--10----------|------------------|--10---------------|----------|
---------|--------------|------------------|-------------------|----------|
---------|--------------|------------------|-------------------|----------|

---------|--------------|------------------|----------------|--------------|
---------|--------------|------------------|----------------|--------------|
--10-----|--------------|--7------8--------|--7-------------|--------------|
---------|--8-----------|------------------|-----------8----|---10---------|
---------|--------------|------------------|----------------|--------------|
---------|--------------|------------------|----------------|--------------|

Interlude(very nice)

------|-----------------|---------------|----------------|---------------|
------|-----------------|---------------|----------------|---------------|
------|-----------------|---------------|----------------|---------------|
--10--|------------10-8-|---------------|-----------8----|---------------|
------|-----------------|---------------|--------------8-|---------------|
------|-----------------|---------------|----------------|--8------------|
         
----------------|----------------|---------------|---------------|
----------------|----------------|---------------|---------------|
----------------|----------------|---------------|---------------|
----------------|----------------|---------------|---------------|
----------------|---10-----------|-----------8-6-|4--------------|
-----------8----|----------------|---------------|--4------------|

----------------|---------------|---------------|----------------|
----------------|---------------|---------------|----------------|
----------------|---------------|---------------|----------------|
----------------|---------------|---------------|----------------|
----------------|--6------------|--8------------|--10------------|
-----------4----|---------------|---------------|----------------|



------|-----------------|---------------|----------------|---------------|
------|-----------------|---------------|----------------|---------------|
------|-----------------|---------------|----------------|---------------|
8-10--|------------10-8-|---------------|-----------8----|---------------|
------|-----------------|---------------|--------------8-|---------------|
------|-----------------|---------------|----------------|--8------------|        

----------------|----------------|---------------|---------------|
----------------|----------------|---------------|---------------|
----------------|----------------|---------------|---------------|
----------------|----------------|---------------|---------------|
----------------|---10-----------|-----------8-6-|4--------------|
-----------8----|----------------|---------------|--4------------|

----------------|---------------|---------------|----------------|
----------------|---------------|---------------|----------------|
----------------|---------------|---------------|----------------|
----------------|---------------|---------------|----------------|
----------------|--6------------|--5------------|--8-------------|
-----------4----|---------------|---------------|----------------|

OUTRO

--------------------------|--------------------------|
--1-----------------------|---1----------------------|
----------------------0---|----------------------0---|
-----------------1--------|-----------------1--------|
----------3---------------|----------3---------------|
--------------------------|--------------------------|

--------------------------|--------------------------|
--1-----------------------|---1----------------------|
----------------------0---|----------------------0---|
-----------------1--------|-----------------1--------|
----------3---------------|----------3---------------|
--------------------------|--------------------------|
            
Hard to play? Try these video lessons and learn fast. | Correct




comments powered by Disqus
↑ Back to top | Tablatures and chords are parodies/interpretations of the original songs. You may use it for private study, scholarship, research or language learning purposes only