» » »

Game Of Thrones - Mandolin Tabs (ver.1)

Artists:  A B C D E F G H I J K L M N O P Q R S T U V W X Y Z # 

Game Of Thrones - Mandolin Tabs (ver.1)

Misc Television
Rating:
0/5 (0 votes)

Hard to play? Try these video lessons and learn fast.
                Game of Thrones Tab for Mandolin

Figured I'd post this for people to mess around with. I adapted and tabbed it myself.
I know the "bridge" part isn't exact, but when playing solo, it still sounds decent.
This is supposed to be a frame work. I like to add my own flourishes and want
other people to do the same. Let me know what you think,
suggestions/improvements are appreciated.
Enjoy,
jdagir

E||  -------------  ||                 ||  -------------  ||
A||o ------------- o|| repeat          ||o ------------- o|| repeat
D||o -5-------1-3- o|| x3              ||o -5-------2-3- o|| x5
G||  -----5-------  ||                 ||  -----5-------  ||
      1   2   3 +                           1   2   3 +

   ---------------------------------------------------------------------||
E||  ||  -------------------------  ||     ||  -------------  ----------||
A||* ||o ------------------------- o||     ||o ------------- o----------|| repeat
D||* ||o -5-------------------1-3- o||     ||o -0----------- o----------|| x4
G||  ||  -------------5-----------  ||     ||  -----0---3-5-  ----------||
          1   2   3   1   2   3 +               1   2   3 +

E ||  -------------------------  ||     ||  -------------  ||         ||
A ||o ------------------------- o||     ||o ------------- o|| repeat *||
D ||o -3-------------------1-0- o||     ||o ------------- o|| x4     *||
G ||  -------------3-----------  ||     ||  -5---0---1-3-  ||         ||
       1   2   3   1   2   3 +               1   2   3 +
                      repeat entire section twice
--------------------------------------------------------------------->>>

E||  -3-----------------------  ||     ||  -------------  ||
A||o -------------3-------6-8- o||     ||o -5-------1-3- o|| repeat
D||o ------------------------- o||     ||o -----5------- o|| x4
G||  -------------------------  ||     ||  -------------  ||
      1   2   3   1   2   3 +               1   2   3 +

E| -1--------------------------------------------- |
A| -------------1-----------5-------6---5-------1- |
D| ----------------------------------------------- |
G| ----------------------------------------------- |
    1   2   3   1   2   3   1   2   3   1   2   3

E||  -------------  ||
A||o -3---------1- o|| repeat
D||o -----5---6--- o|| x4
G||  -------------  ||
      1   2   3 +

E||  ------------------------------------------------------------|
A||o -3-----------3-------1-3-1-----------1-------1--------------|
D||o -------------------------------------------------6----------|
G||  ------------------------------------------------------------|
      1   2   3   1   2   3 + 1   2   3   1   2   3   1   2   3

E ----------------------------------------------------------------------|
A ----------------------------------------------------------------------|
D -6---8---10--5-----------5-------5-0-1-----------1-------1---0--------|
G ----------------------------------------------------------------------|
   1   2   3   1   2   3   1   2   3 + 1   2   3   1   2   3   1   2   3


E -------------------------------------------------------------  ||
A ------------------------------------------------------------- o||
D ------------------------------------------------------------- o||
G -3-----------5---0---1-3-5---0---1-3-5---0---1-3-5---0---1-3-  ||
   1   2   3   1   2   3 + 1   2   3 + 1   2   3 + 1   2   3 +


E| -------------------------------------------------3- |
A| -3---------1-3---------1-3---------1-3---------1-3- |
D| -----5---6-------5---6-------5---6-------5---6----- |
G| --------------------------------------------------- |
    1   2   3 + 1   2   3 + 1   2   3 + 1   2   3 + 1


  ------------------------------------------------------------------

here are the four main patterns.
I practiced these first before adding the other stuff.

E||  -------------  ||     ||  -------------  ||
A||o ------------- o||     ||o ------------- o||
D||o -5-------1-3- o||     ||o -0----------- o||
G||  -----5-------  ||     ||  -----0---3-5-  ||
      1   2   3 +               1   2   3 +

E||  -------------  ||     ||  -------------  ||
A||o ------------- o||     ||o ------------- o||
D||o -3-------0-1- o||     ||o ------------- o||
G||  -----3-------  ||     ||  -5---0---1-3-  ||
      1   2   3 +               1   2   3 +
            
Hard to play? Try these video lessons and learn fast. | Correct




comments powered by Disqus
↑ Back to top | Tablatures and chords are parodies/interpretations of the original songs. You may use it for private study, scholarship, research or language learning purposes only