» » »

Game Of Thrones Main Title Tabs (ver.1)

Artists:  A B C D E F G H I J K L M N O P Q R S T U V W X Y Z # 

Game Of Thrones Main Title Tabs (ver.1)

Misc Television
Rating:
0/5 (0 votes)

Hard to play? Try these video lessons and learn fast.
                Tuning: E standard ( E A D G B E )

Watch my Cover Video:

My fingering suggestion is just a guideline. Figure out what feels the most comfortable for you.

|----------------------------------------------------------------------|
|----------------------------------------------------------------------|
|--12----------------12----------------12--------------12--------------|
|------------13--15------------13--15----------13--15----------13--15--|
|-------15----------------15---------------15--------------15----------|
|----------------------------------------------------------------------|

|----------------------------------------------------------------------|
|----------------------------------------------------------------------|
|--12---------------12---------------12---------------12---------------|
|-----------14--15-----------14--15-----------14--15-----------14--15--|
|------15---------------15----------------15--------------15-----------|
|----------------------------------------------------------------------|

|----------------------------------------------------------------------|
|----------------------------------------------------------------------|
|----------------------------------------------------------------------|
|----------------------------------------------------------------------|
|--10---------6h8h10--------6h8----------------------------------------|
|--------8-------------8---------10------------------------------------|

|----------------------------------------------------------------------|
|----------------------------------------------------------------------|
|----------------------------------------------------------------------|
|----------------------------------------------------------------------|
|--8---------5h6h8--------6h5------------------------------------------|
|-------6------------6----------8--------------------------------------|

|----------------------------------------------------------------------|
|----------------------------------------------------------------------|
|--12--------8h10h12-------8h10----------------------------------------|
|-------10------------10---------12------8h10h12------8h10h12----------|
|------------------------------------10-----------10-----------10------|
|----------------------------------------------------------------------|

|----------------------------------------------------------------------|
|----------------------------------------------------------------------|
|--------------------10------------7h8h10-----------7h8--5-------------|
|---8h10h12------8-----------8----------------8--------------5--6h8----|
|------------10--------------------------------------------------------|
|----------------------------------------------------------------------|

|----------------------------------------------------------------------|
|----------------------------------------------------------------------|
|--7h8--5-----------5-----------5-----------5--------------------------|
|-----------5--6h8------5--6h8------5--6h8------5--6-------------------|
|----------------------------------------------------------------------|
|----------------------------------------------------------------------|

|--15-----------11h13h15------------11h13p10---------------10----------|
|---------13------------------13--------------------11h13--------------|
|----------------------------------------------12---------------12-----|
|----------------------------------------------------------------------|
|----------------------------------------------------------------------|
|----------------------------------------------------------------------|

|---------10---------------10--------------13-------------10---11---10-|
|--11h13------------11h13-------------11------------11-----------------|
|---------------12---------------12------------------------------------|
|----------------------------------------------------------------------|
|----------------------------------------------------------------------|
|----------------------------------------------------------------------|

|----------------------------------------------------------------------|
|--11---13--------------13--------------13--------------13-------------|
|-----------12--13--15------12--13--15------12--13--15------12--13--15-|
|----------------------------------------------------------------------|
|----------------------------------------------------------------------|
|----------------------------------------------------------------------|

|----------------------------------------------------------------------|
|--13----------11----------9-------------------------------------------|
|----------------------------------------12----------------------------|
|------------------------------10----------------------------3----5----|
|-------------------------------------------------------6--------------|
|-------------------------------------------------4--------------------|

|----------------------------------------------------------------------|
|--13----------11------------------------------------------------------|
|------------------------------------12--------------------------------|
|-------------------------10-------------------------------------------|
|---------------------------------------------------6-----5-----3------|
|--------------------------------------------4-------------------------|

|--20-----------18---20-----------18---20-----------18---20---------18-|
|-------20--21------------20--21-----------20--21------------20--21----|
|----------------------------------------------------------------------|
|----------------------------------------------------------------------|
|----------------------------------------------------------------------|
|----------------------------------------------------------------------|

|----------------------------------------------------------------------|
|--13--------------13-------------13--------------13-------------------|
|------12--13h15-------12--13h15------12--13h15------------------------|
|----------------------------------------------------------------------|
|----------------------------------------------------------------------|
|----------------------------------------------------------------------|
            
Hard to play? Try these video lessons and learn fast. | Correct




comments powered by Disqus
↑ Back to top | Tablatures and chords are parodies/interpretations of the original songs. You may use it for private study, scholarship, research or language learning purposes only