» » »

Misc Television, Game Of Thrones Bass tabs (ver.1)

Artists:  A B C D E F G H I J K L M N O P Q R S T U V W X Y Z # 

Game Of Thrones Bass tabs (ver.1)

Misc Television Tabs
 Rating:
4/5 (4 votes)
Game Of Thrones lessons Tabs too difficult? Try these video lessons and learn fast
                This is for a metal cover of the theme

-------------------------------------------------------------------------------
		     Game of thrones main theme - Ramin Djawadi
-------------------------------------------------------------------------------


Tuning: standard

intro

G|---------------------------------------------------------------------------|
D|---------------------------------------------------------------------------|
A|---3-----------------------------------------------------------------------|
E|---------------------------------------------------------------------------|
First part - this repeats 2 times
                                             4x
G|-------------------------------------|--------------|-------------------------|
D|--5-----------------5----------------|--------------|-------------------------|
A|----------3------------------3-------|-5------------|-------------------------|
E|-------------------------------------|----3-----3-6-|-------------------------|
                                              4x
G|-------------------------------------|--------------|----------------------|
D|--3-----------------3----------------|--------------|----------------------|
A|-----------1------------------1------|-3----------0-|----------------------|
E|-------------------------------------|----1-----1---|----------------------|
The third time it goes like this
                                             4x
G|-------------------------------------|--------------|-------------------------|
D|--5-----------------5----------------|--------------|-------------------------|
A|----------3------------------3-------|-5------------|-------------------------|
E|-------------------------------------|----3-----3-6-|-------------------------|
                                              4x
G|-------------------------------------|--------------|------------------------|
D|--3-----------------0--1--0----------|--------------|------------------------|
A|-----------1------1----------1-------|-3----------0-|------------------------|
E|-------------------------------------|----1-----1---|------------------------|

Then comes the second part

G|---------------------------------------------------------------------------|
D|---------------------------------------------------------------------------|
A|-------------------------6-6-6-6-6-6-6-6-6-6-6-6---------------------------|
E|-4-4-4-4-4-4-4-4-4-4-4-4-------------------------1-1-1-1-1-1-1-1-1-1-1-1---|

G|-----------------------------------------------------------------------------|
D|-----------------------------------------------------------------------------|
A|-3-3-3-3-3-3-3-3-3-3-3-3------------------------6-6-6-6-6-6-8-8-8-8-8-8------|
E|-------------------------4-4-4-4-4-4-4-4-4-4-4-4-----------------------------|

G|---------------------------------------------------------------------------|
D|---------------------------------------------------------------------------|
A|-3-3-3-3-3-3-3-3-3-3-3-3-3-3-3-3-3-3-3-3-3-3-3-3---------------------------|
E|---------------------------------------------------------------------------|

G|---------------------------------------------------------------------------|
D|---------------------------------------------------------------------------|
A|-------------------------6-6-6-6-6-6-6-6-6-6-6-6---------------------------|
E|-4-4-4-4-4-4-4-4-4-4-4-4-------------------------1-1-1-1-1-1-1-1-1-1-1-1---|

G|-----------------------------------------------------------------------------|
D|-----------------------------------------------------------------------------|
A|-3-3-3-3-3-3-3-3-3-3-3-3------------------------6-6-6-6-6-6-5-5-5-5-5-5------|
E|-------------------------4-4-4-4-4-4-4-4-4-4-4-4-----------------------------|

G|---------------------------------------------------------------------------|
D|---------------------------------------------------------------------------|
A|-3-3-3-3-3-3-3-3-3-3-3-3-3-3-3-3-3-3-3-3-3-3-3-3---------------------------|
E|---------------------------------------------------------------------------|


| /  slide up
| \  slide down
| h  hammer-on
| p  pull-off
| ~  vibrato
| +  harmonic
| x  Mute note
===============================================================================
            
Submit corrections

comments powered by Disqus
↑ Back to top | Misc Television Bass for Game Of Thrones. Lyrics for acoustic guitar and electric guitar. Tablatures and chords are parodies/interpretations of the original songs. You may use it for private study, scholarship, research or language learning purposes only