» » »

Misc Television, Full House Tabs (ver.1)

Artists:  A B C D E F G H I J K L M N O P Q R S T U V W X Y Z # 

Full House Tabs (ver.1)

Misc Television Tabs
 Rating:
4/5 (4 votes)
Full House lessons Tabs too difficult? Try these video lessons and learn fast
1
                (Theme)

Intro
   E7                  A                   E7                  A
e|-------------------|-------------------|-------12~~--------|-----------------|
b|-------------------|-------------------|-10b12------10-----|-----------------|
g|-------------------|-------------------|---------------12--|-9---------------| 
d|-------------------|-------------------|-------------------|-----------------|
a|-------------------|-------------------|-------------------|-----------------|
E|-------------------|-------------------|-------------------|-----------------|

   A                   B
e|-------------------|-------------------|
b|-------------------|-------------------|
g|-b^^^^^^^^^^^^^^^^^|-13----------------| bend the 9 very slow
d|-------------------|-------------------|
a|-------------------|-------------------|
E|-------------------|-------------------|


Verse
   E7                  A                   E7                  A
e|-------------------|-------------------|-------------------|-----------------|
b|-------------------|-------------------|-------------------|--------------/--|
g|-------------------|-------------------|-------------------|--------------/--|
d|-------------------|-------------------|-------------------|-----------------|
a|-------------------|-------------------|-------------------|-----------------|
E|-------------------|-------------------|-------------------|-----------------|

   B
e|-------------------|
b|-/9~~--------------|
g|-/9~~--------------|
d|-------------------|
a|-------------------|
E|-------------------|

Chorus
   E       B/D#        C#m       B         A        A          A        B
e|-------------------|-------------------|-------------------|--------------------|
b|-------------------|-------------------|-------------------|--------------------|
g|-------------------|-------------------|-------------------|-11b13-11-11b13-9~~-|
d|-------------------|-------------------|-------------------|--------------------|
a|-------------------|-------------------|-------------------|--------------------|
E|-------------------|-------------------|-------------------|--------------------|

   E       B/D#        C#m       B         A        A          A        B
e|-------------------|-------------------|-------------------|-------------12~~-|
b|-------------------|-------------------|-------------------|-----/9-12-9------|
g|-------------------|-------------------|-------------------|------------------|
d|-------------------|-------------------|-------------------|------------------|
a|-------------------|-------------------|-------------------|------------------|
E|-------------------|-------------------|-------------------|------------------|

   E       B/D#        C#m       B  
e|-------------------|-------------------|
b|-------------------|-------------------|
g|-------------------|-------------------|
d|-------------------|-------------------|
a|-------------------|-------------------|
E|-------------------|-------------------|

                                                    2/4 timing
Bridge                                    /----------------------------\
   A                   G#m                 C#m       C#m/C     B
e|-------------------|-------------------|---------|---------|---------|
b|-------------------|-------------------|---------|---------|---------|
g|-------------------|-------------------|---------|---------|---------|
d|-------------------|-------------------|---------|---------|---------|
a|-------------------|-------------------|---------|---------|---------|
E|-------------------|-------------------|---------|---------|---------|

   A                   B
e|-------------------|-------------------|
b|-12b14r12p9----12--|-------------------|
g|------------11-----|-------------------|
d|-------------------|-------------------|
a|-------------------|-------------------|
E|-------------------|-------------------|

Breakdown
   E7                  A                   E7                  A
e|-------------------|-------------------|---11r10b12~~------|-----------------|
b|-------------------|-------------------|-------------------|-----------------|
g|-9\----------------|-------------------|-------------------|-----------------|
d|-------------------|-------------------|-------------------|-----------------|
a|-------------------|-------------------|-------------------|-----------------|
E|-------------------|-------------------|-------------------|-----------------|
            
Submit corrections

comments powered by Disqus
↑ Back to top | Misc Television Tabs for Full House. Lyrics for acoustic guitar and electric guitar. 1 Tablatures and chords are parodies/interpretations of the original songs. You may use it for private study, scholarship, research or language learning purposes only