» » »

Freakzoid Tabs (ver.1)

Artists:  A B C D E F G H I J K L M N O P Q R S T U V W X Y Z # 

Freakzoid Tabs (ver.1)

Misc Television
Rating:
0/5 (0 votes)

Hard to play? Try these video lessons and learn fast.
                (Theme)
-------------------------------------------------------------------------------
                             Freakazoid Theme
-------------------------------------------------------------------------------

easy song.  the only chords u need to know are Am, Dm and E.  Then, it modulates up a 
step.  simple as that.

Tuning:

Listen to the song to come up with the rhythm because as they sing it, it changes.  Try 
do it according to how they sing.  But then again, you're the one playing it.

e|---------------------------------------------------------------------------|
B|---------------------------------------------------------------------------|
G|---------------------------------------------------------------------------|
D|---------------------------------------------------------------------------|
A|-------------4-------7---6---4---------------------------------------------|
E|-----6---6-------6-------------------------6---4---6---------6---4---6-----|

e|---------------------------------------------------------------------------|
B|---------------------------------------------------------------------------|
G|---------------------------------------------------------------------------|
D|---------------------------------------------------------------------------|
A|-------------4-------7---6---4---------------------------------------------|
E|-----6---6-------6-------------------------6---4---6---------6---4---6-----|

e|---------------------------------------------------------------------------|
B|---------------------------------------------------------------------------|
G|---------------------------------------------------------------------------|
D|-------------4-------7---6---4---------------------------------------------|
A|-----6---6-------6-------------------------6---4---6---------6---4---6-----|
E|---------------------------------------------------------------------------|

e|---------------------------------------------------------------------------|
B|---------------------------------------------------------------------------|
G|---------------------------------------------------------------------------|
D|---------------------------------------------------------------------------|
A|-------------4-------7---6---4---------------------------------------------|
E|-----6---6-------6-------------------------6---4---6---------6---4---6-----|

e|---------------------------------------------------------------------------|
B|---------------------------------------------------------------------------|
G|---------------------------------------------------------------------------|
D|---------------------------------------------------------------------------|
A|---------8---8---6-------6---8-----------------7---7---6---4---------------|
E|-----6---------------9---------------------6-------------------6---4-------|

e|---------------------------------------------------------------------------|
B|---------------------------------------------------------------------------|
G|---------------------------------------------------------------------------|
D|---------------------------------------------------------------------------|
A|-------------4-------7---6---4---------------------------------------------|
E|-----6---6-------6-------------------------6---4---6---------6---4---6-----|

e|---------------------------------------------------------------------------|
B|---------------------------------------------------------------------------|
G|---------------------------------------------------------------------------|
D|-----8---10---11---10---8--------------------------------------------------|
A|----------------------------8-------------------8---9--------8-------------|
E|-------------------------------------------11-----------11-----------------|

e|---------------------------------------------------------------------------|
B|---------------------------------------------------------------------------|
G|---------------------------------------------------------------------------|
D|-----8---10---11---10---8--------------------------------------------------|
A|-8--------------------------8---8---8---10---10---10---12------------------|
E|---------------------------------------------------------------------------|

e|---------------------------------------------------------------------------|
B|---------------------------------------------------------------------------|
G|-----9---8---6-6--------------------9---8---6-6----------------------------|
D|-7-----------------8-8----------------------------8------------------------|
A|-------------------------8------8------------------------------------------|
E|---------------------------------------------------------------------------|

e|-----------------------------------------------------------------------------|
B|-------------------------------------------8---8---9---9---10--------12\-----|
G|---------6---8-8---9---10--------------10------------------------------------|
D|-8---8-----------------------------------------------------------------------|
A|-----------------------------------------------------------------------------|
E|-----------------------------------------------------------------------------|

e|---------------------------------------------------------------------------|
B|---------------------------------------------------------------------------|
G|---------------------------------------------------------------------------|
D|---------------------------------------------------------------------------|
A|-------------5-------8---7---5---------------------------------------------|
E|-----7---7-------7-------------------------7---5---7---------7---5---7-----|

e|---------------------------------------------------------------------------|
B|---------------------------------------------------------------------------|
G|---------------------------------------------------------------------------|
D|---------------------------------------------------------------------------|
A|-------------5-------8---7---5---------------------------------------------|
E|-----7---7-------7-------------------------7---5---7---------7---5---7-----|

e|---------------------------------------------------------------------------|
B|---------------------------------------------------------------------------|
G|---------------------------------------------------------------------------|
D|-------------5-------8---7---5---------------------------------------------|
A|-----7---7-------7-------------------------7---5---7---------7---5---7-----|
E|---------------------------------------------------------------------------|

e|---------------------------------------------------------------------------|
B|---------------------------------------------------------------------------|
G|---------------------------------------------------------------------------|
D|---------------------------------------------------------------------------|
A|-------------5-------8---7---5---------------------------------------------|
E|-----7---7-------7-------------------------7---5---7---------7---5---7-----|

e|------------------------------------------------------------------------------|
B|------------------------------------------------------------------------------|
G|------------------------------------------------------------------------------|
D|------------------------------------------------------------------------------|
A|---------9---9---7-------7---9-----------------8---8---7---5------------------|
E|-----7---------------10---------------------7-------------------7---5---------|

e|---------------------------------------------------------------------------|
B|---------------------------------------------------------------------------|
G|---------------------------------------------------------------------------|
D|---------------------------------------------------------------------------|
A|-------------5-------8---7---5---------------------------------------------|
E|-----7---7-------7-------------------------7---5---7---------7---5---7-----|

e|---------------------------------------------------------------------------|
B|---------------------------------------------------------------------------|
G|---------------------------------------------------------------------------|
D|---------------------------------------------------------------------------|
A|---------------------------------------------------------------------------|
E|----//////////--19---17---19-----------------------------------------------|

Now you can play some cartoon nostalgia for your friends.  By the way, you can watch a 


| /  slide up
|   slide down
| h  hammer-on
| p  pull-off
| ~  vibrato
| +  harmonic
| x  Mute note
===============================================================================
            
Hard to play? Try these video lessons and learn fast. | Correct




comments powered by Disqus
↑ Back to top | Tablatures and chords are parodies/interpretations of the original songs. You may use it for private study, scholarship, research or language learning purposes only