» » »

Family Matters Tabs (ver.1)

Artists:  A B C D E F G H I J K L M N O P Q R S T U V W X Y Z # 

Family Matters Tabs (ver.1)

Misc Television
Rating:
0/5 (0 votes)

Hard to play? Try these video lessons and learn fast.
                (Theme)
Misc Television
Tuning: Standard

Piano Intro:
|-------------15-15--15--20-15-18-19----|
|-------15h17---------------------------|
|-15h16---------------------------------|
|---------------------------------------|
|---------------------------------------|
|---------------------------------------|

-Synths takes over-

Guitar Riff: (Play during verse)
|----------------------------------------------------------------|
|----------------------------------------------------------------|
|----------------------------------------------------------------|
|----5--5-----5---5--5-----5---5--5-----5---3--3-----3-----------|
|-----------5---5--------5---5--------5---5--------3---x---------|
|--------------------------------------------------------3--3----|
 PM|----------------------------------------------------------|

|---------------------------------------------------------|
|---------------------------------------------------------|
|---------------------------------------------------------|
|------------------------5--5----5---3--3-----3-----------|
|------3---4--4-----4----------5---5--------3---x---------|
|----3---3--------3---3----------------------------3--3---|
  PM|---------------------------------------------------|

|-------------------------------|
|-------------------------------|
|-------------------------------|
|-------------------------------|
|-------3---4--4-----4---4------|
|-----3---3--------3---3--------|
  PM|-------------------|

Verse:
        G               F
It’s a rare condition, this day and age
C                              C#
To read any good news on the newspaper page
G                          F
Love and tradition of the grand design
C                          C#           A
Some people say it’s even harder to find
D                                   D#
Well then there must be some magic clue
               E
Inside these gentle walls
|------------------------------|
|------------------------------|
|------------------------------|
|-4h5-4--5--7s9~\--------------|
|------------------------------|
|------------------------------|

Bridge:
       C              C#
Cause all I see is a tower of dreams
D
Real love burstin’ out of every seam


Chorus:
    G                      Dsus                G
As days go by, we’re gonna fill our house with happiness
G            Dsus
The moon may cry
              D                       G
We’re gonna smother the blues with tenderness
      G                  Dsus
When days go by, there’s room for you, room for me
G                        E
For gentle hearts an opportunity
    G                   Dsus                 D         G
As days go by, It’s the bigger love of the family

Outro Piano:
|-------------15-15--15--20-15-18-19-15--20----18--15----|
|-------15h17--------------------------------------------|
|-15h16--------------------------------------------------|
|--------------------------------------------------------|
|--------------------------------------------------------|
|--------------------------------------------------------|
Synth Outro:
|------------------------------------|
|----------15-16h17-15---------------|
|----15-16-------------16-15-14------|
|-17----------------------------17---|
|------------------------------------|
|------------------------------------|
Chords:
G:    320033  or  355433
F:    133211
C:    x32010  or  x355xx
C#:   x466xx
D:    xx0232  or  x577xx
D#:   x688xx
Dsus: xx0233
E:    022100  or  x799xx
A:    577655
            
Hard to play? Try these video lessons and learn fast. | Correct




comments powered by Disqus
↑ Back to top | Tablatures and chords are parodies/interpretations of the original songs. You may use it for private study, scholarship, research or language learning purposes only