» » »

Misc Television, Family Guy Bass tabs (ver.2)

Artists:  A B C D E F G H I J K L M N O P Q R S T U V W X Y Z # 

Family Guy Bass tabs (ver.2)

Misc Television Tabs
Rating:
0/5 (0 votes)
Family Guy lessons Tabs too difficult? Try these video lessons and learn fast
                (Theme)
THIS IS THE ACTUAL BASS TAB!! FINALLY.. this is a fun walking bass line and sounds cool. 
positive that this is correct. And if it isn't, well it's pretty darn close.
 Tuning: Standard
 Time: 4/4
 Key: F [i think]

 Q = quarter rest
 H. = dotted half rest (3 counts)
 h = hammer on
G|--------------------------------------------------------------------|
D|-------00-3-0--------------------------------------0----------------|
A|---0-3---------3--0---5-3----------0-1-1-2-2-3-4-----0------3~--2---|
E|-1------------------3-----5-33-1-3---------------------3------------|

G|---------------------------------------------------------------------|
D|---------------------------------------------------------------------|
A|-1-1--2-2-3-4-5-0---1-3-------1-------0-4-5-H.3-Q-3-Q-3-Q-3-Q-3------|
E|--1----2----------3-----3-1-1---1-0-0--------------------------------|

G|----------------------|
D|--2h3-2-0---0-2-3-----|
A|----------3-----------|
E|------------------1---|
            
Submit corrections

comments powered by Disqus
↑ Back to top | Misc Television Bass for Family Guy. Lyrics for acoustic guitar and electric guitar. Tablatures and chords are parodies/interpretations of the original songs. You may use it for private study, scholarship, research or language learning purposes only