» » »

Family Guy - Rock Lobster Tabs (ver.2)

Artists:  A B C D E F G H I J K L M N O P Q R S T U V W X Y Z # 

Family Guy - Rock Lobster Tabs (ver.2)

Misc Television
Rating:
0/5 (0 votes)

Hard to play? Try these video lessons and learn fast.
                ~ ~ Rock Lobster (Acoustic) ~ ~

FAMILY GUY - Season 4, Episode 5 - "The Cleveland–Loretta Quagmire"
Peter's acoustic rendition of the B-52s song



                =========  ========  ======
Versions below: 2 Guitars, 1 Guitar, Chords
                =========  ========  ======


-----------------------------------
-----------------------------------
All guitars have a CAPO on 3rd FRET
-----------------------------------
-----------------------------------



================
WITH  2  GUITARS
================

                      Riff 1  (x8)
                      ~~~~~~

        e|-------------------------------|
        B|-------------------------------|
Guitar  G|-------------------------------|
  1     D|--2--------------3-0-3-2-------|
        A|----0--2--3--2-0---------------|
        E|-------------------------------|
                                                               
        e|-------0-----0------------x-x--|
        B|-------1-----1------------3-3--|
Guitar  G|-------2-----2------------1-1--|
  2     D|-------2-----2------------0-0--|
        A|-------0-----0------------2-2--|
        E|--------------------------0-0--|


                               Riff 2  (x3)
                               ~~~~~~

        e|------------------------------------------------------------|
        B|--5------4------5------4------------4---4--5----------------|
Guitar  G|------------------------------5--5----5---------------------|
  1     D|------------------------------------------------------------|
        A|------------------------------------------------------------|
        E|------------------------------------------------------------|

        e|-----0-0----0------0-0----0---------------------------------|
        B|-----1-1----1---1--1-1-1--1------1-1----1------3-3-----3-3--|
Guitar  G|--2--2-2-2--2---0--0-0-0--0------2-2----2------1-1-x-x-1-1--|
  2     D|--2--2-2-2--2---2--2-2-2--2---3--3-3-3--3---0--0-0-x-x-0-0--|
        A|--0------0------3------3------3------3------2--2-2-x-x-2-2--|
        E|------------------------------1------1------0---------------|



Strumming Pattern:   v_v^v_v_   d dud d           (E7 strum:  v_v^xxv^)

Note: the 3rd run of Riff 2 ends with just one quick strum of E7 (02013x)




===============
WITH  1  GUITAR
===============

             Riff 1  (x8)
             ~~~~~~

e|------------------------0-0--|
B|------------------------3-3--|
G|------------------------1-1--|
D|---------------3-0-3-2--2-2--|
A|--0--2--3--2-0----------2-2--|
E|------------------------0-0--|


                            Riff 2  (x3)
                            ~~~~~~

e|--0-------------0--------------------------0--0-0---0-0-0--|
B|--1------4------1------4------1--1--4-1-4--3--3-3---3-3-3--|
G|--2------2------0------0------2--2--2-2-2--1--1-1---1-1-1--|
D|--2------1------2------1------3--3--3-3-3--2--2-2---2-2-2--|
A|-------------------------------------------2--2-2---2-2-2--|
E|-------------------------------------------0--0-0---0-0-0--|




======
CHORDS
======

 Am  Am  E7
 -

 Am  Am  E7
 -

 Am  Am  E7
 We were at the beach

 Am  Am  E7
 Everybody had matching towels

 Am  Am  E7
 Somebody went under a dock

 Am  Am  E7
 And there they saw a rock

 Am  Am  E7
 But it wasn't a rock

 Am  Am  E7
 It was a rock lobster

 Am  C  F  E7
             Rock lobster
 Am  C  F  E7
             Rock lobster
 Am  C  F  E7
              Eh-heh-heh-heh-heh
              Yeah, you're gonna be ok
            
Hard to play? Try these video lessons and learn fast. | Correct




comments powered by Disqus
↑ Back to top | Tablatures and chords are parodies/interpretations of the original songs. You may use it for private study, scholarship, research or language learning purposes only