>
 >
Family Guy - Rock Lobster

Family Guy - Rock Lobster Guitar Tabs

Misc Television - Family Guy - Rock Lobster chords, tabs, tablatures, lyrics

Guitar lessons | Add/correct | Request | Top 50 tabs Artists:  A B C D E F G H I J K L M N O P Q R S T U V W X Y Z 0-9

Family Guy - Rock Lobster Guitar Tabs – Misc Television

CD, Sheet music, Poster

Do you like Family Guy - Rock Lobster? Share with your friends now
TabsTabs v2Tabs v3

ROCK LOBSTER
As recorded by Peter Griffin

        

Words by Fred Schneider Music by Fred Schneider/Ricky Wilson

Gtr I (E A D G B E) - 'Gtr. 1'
Gtr II (E A D G B E) - 'Bump on guitar body'

 Intro
  Moderate Rock Q=175
                                  G7
 4/4                                  2/4
                     Gtr II       Gtr I
  W          H.      Q    H.      q    H
|----------|------------|---------0--|------|
|----------|------------|---------0--|------|
|----------|------------|---------1--|------|
|----------|------------|---------0--|------|
|----------|---------0--|---------2--|------|
|----------|------------|---------0--|------|


     Eb/D     Eb/D  N.C.        G7         Eb/D     Eb/D  N.C.        G7
 4/4
  Gtr I
  Q  E +E  Q  E E   E E E E +E  E E E   Q  E +E  Q  E E   E E E E +E  E E E
|----0--------0---|-------------0-0---|----0--------0---|-------------0-0---|
|----1--------1---|-------------0-0---|----1--------1---|-------------0-0---|
|----0--------0---|-------------1-1---|----0--------0---|-------------1-1---|
|-----------------|-3-0-3-2-(2)-0-0---|-----------------|-3-0-3-2-(2)-0-0---|
|-0--2-(2)-3--2-0-|-------------2-2---|-0--2-(2)-3--2-0-|-------------2-2---|
|-----------------|-------------0-0-0-|-----------------|-------------0-0-0-|


   Verse
       Eb/D     Eb/D  N.C.        G7
    Q  E +E  Q  E E   E E E E +E  E E E
||-----0--------0---|-------------0-0---|
||o----1--------1---|-------------0-0---|
||-----0--------0---|-------------1-1---|
||------------------|-3-0-3-2-(2)-0-0---|
||o-0--2-(2)-3--2-0-|-------------2-2---|
||------------------|-------------0-0-0-|


     Eb/D     Eb/D  N.C.        G7
  Q  E +E  Q  E E   E E E E +E  E E E  3x
|----0--------0---|-------------0-0----||
|----1--------1---|-------------0-0---o||
|----0--------0---|-------------1-1----||
|-----------------|-3-0-3-2-(2)-0-0----||
|-0--2-(2)-3--2-0-|-------------2-2---o||
|-----------------|-------------0-0-0--||


   Chorus
    Eb/C              Eb
    Q  E E E +E  Q    E +E  E E E +E  Q
||--0---------------|-0-(0)--------------|
||o----1-1-4-(4)-1--|-------1-1-4-(4)-1--|
||-----0-0-------0--|-------0-0-------0--|
||-----2-2-------2--|-------2-2-------2--|
||o-0------0-(0)----|-3-(3)-----3-(3)----|
||------------------|--------------------|


  Ab7                     G7
  E +E  E E E  E   E  E    Q   E E E E E E
|---------------------0-|-(0)---------------||
|-1-(1)-1-1-4--1---4----|------0-0-----0-0-o||
|-------2-2--------2----|------1-1-----1-1--||
|-------1-1--------1----|------0-0-----0-0--||
|-----------------------|------------------o||
|-1-(1)-1---1-(1)-(1)---|--0-------0-0------||


  Eb/C              Eb                   Ab7                    G7
  Q  E E E +E  Q    E +E  E E E +E  Q    E +E  E E E  E   Q     q  H.
|-0---------------|-0-(0)--------------|----------------------|-0--------*|
|----1-1-4-(4)-1--|-------1-1-4-(4)-1--|-1-(1)-1-1-4--1---4---|-0--------*|
|----0-0-------0--|-------0-0-------0--|-------2-2--------2---|-1--------*|
|----2-2-------2--|-------2-2-------2--|-------1-1--------1---|-0--------*|
|-0------0-(0)----|-3-(3)-----3-(3)----|----------------------|-2--------*|
|-----------------|--------------------|-1-(1)-----1-(1)-(1)--|-0--------*|



Duration Legend
---------------
W - whole; H - half; Q - quarter; E - 8th; S - 16th; T - 32nd; X - 64th; a - acciaccatura
+ - note tied to previous; . - note dotted; .. - note double dotted
Uncapitalized letters represent notes that are staccato (1/2 duration)
Irregular groupings are notated above the duration line
Duration letters will always appear directly above the note/fret number it represents the
duration for.  Duration letters with no fret number below them represent rests.  Multi-
bar rests are notated in the form Wxn, where n is the number of bars to rest for.  Low
melody durations appear below the staff

Tablature Legend
----------------
 h   - hammer-on
 p   - pull-off
 b   - bend
 pb  - pre-bend
 r   - bend release (if no number after the r, then release immediately)
 /\  - slide into or out of (from/to "nowhere")
 s   - legato slide
 S   - shift slide
 - natural harmonic
[n]  - artificial harmonic
n(n) - tapped harmonic
 ~   - vibrato
 tr  - trill
 T   - tap
 TP  - trem. picking
 PM  - palm muting
\n/  - tremolo bar dip; n = amount to dip
 \n  - tremolo bar down
 n/  - tremolo bar up
/n\  - tremolo bar inverted dip
 =   - hold bend; also acts as connecting device for hammers/pulls
 <> - volume swell (louder/softer)
 x   - on rhythm slash represents muted slash
 o   - on rhythm slash represents single note slash

Misc Legend
-----------
 |  - bar
||  - double bar
||o - repeat start
o|| - repeat end
*|  - double bar (ending)
 :  - bar (freetime)
 $  - Segno
 &  - Coda
Tempo markers -  = BPM(8/16=s8/s16), where s8 = swing 8ths, s16 = swing 16ths





Comments


Popular Misc Television tabs & chords
Coors Light Wingman Chords
Firefly Theme Chords
Full House Theme Chords
Rentaghost Theme Chords
Brady Bunch Na Na Na Na Song Tabs
Inside 1 Tabs
Jerry Springer Tabs
Mxc Theme Tabs
Night Court Theme Tabs
Spectacular Spiderman Theme Tabs


Song lyrics



↑ Back to top | Tablatures and chords are parodies/interpretations of the original songs. You may use it for private study, scholarship, research or language learning purposes only
© 2014 AZChords.com Contact us | Privacy policy | DMCA | Add/correct tabs | Request tabs | Top 50 tabs