» » »

Family Guy - Iraq Lobster Tabs (ver.1)

Artists:  A B C D E F G H I J K L M N O P Q R S T U V W X Y Z # 

Family Guy - Iraq Lobster Tabs (ver.1)

Misc Television
Rating:
0/5 (0 votes)

Hard to play? Try these video lessons and learn fast.
                Iraq Lobster by Peter Griffin (Family Guy)

Finger Picking
( ) - For Strumming


e|----(3)---(3)--------------(3)-(3)-----|
B|-----4-----4----------------4--4-------|
G|-----5-----5----------------5--5-------|
D|-----5-----5------6---5-----5--5-------|
A|---3------6-----6---6-------3--3-------|
E|---------------------------------------|     Repeat 8x


e|---------------------------------------------|
B|---9---8---9---8---4-4---7---4---7---8-------|
G|---------------------------------------------|
D|---6---5---6---5---1-1---4---1---4---5-------|
A|---------------------------------------------|
E|---------------------------------------------|    Repeat 3x

Lyrics:

I wanna sing a little song that cept me going when I had troubles...

We were at the beach, everybody had matching towels

Somebody went under a dock and there they saw Iraq

But it wasn´t Iraq, It was Iraq lobster!

Iraq lobster..
Iraq lobster..


hehehehehe

Yeah you gonna be okey!


That is how I play it and i think it sounds great! what do you think?
            
Hard to play? Try these video lessons and learn fast. | Correct




comments powered by Disqus
↑ Back to top | Tablatures and chords are parodies/interpretations of the original songs. You may use it for private study, scholarship, research or language learning purposes only