» » »

Misc Television, Family Guy - Do Her - Handful Of Peter Tabs (ver.1)

Artists:  A B C D E F G H I J K L M N O P Q R S T U V W X Y Z # 

Family Guy - Do Her - Handful Of Peter Tabs (ver.1)

Misc Television Tabs
 Rating:
4/5 (4 votes)
Family Guy - Do Her - Handful Of Peter lessons Tabs too difficult? Try these video lessons and learn fast
1
                ----------------------------------------------------------------------------
                            Do Her - Handful of Peter (Family Guy)
----------------------------------------------------------------------------

Tuning: EADGBE                                       Part B

e|-------8---------------8----------------10--------|-------------------|
B|----8----8---------10----10----------12----12-----|-------------------|
G|-9---------9---10-----------10---12-----------12--|-12/14--12---10----|
D|--------------------------------------------------|-------------------|
A|--------------------------------------------------|-------------------|
E|--------------------------------------------------|-------------------|

The last time, before going into the second part, Part B is replaced with the following.
e|------------13---------------|
B|-------13-------13-----------|
G|--14----------------14-------|
D|-----------------------------|
A|-----------------------------|
E|-----------------------------|

Whilst Lois is doing this Peter is just playing the chords C F G F.

For the second part (He would do her all the way...)

F
He would do her all the way

          C
Even call her the next day

             F             G                           C F F C
Just to see how work was going



************************************

| /   slide up
| \   slide down
| h   hammer-on
| p   pull-off
| ~   vibrato
| +   harmonic
| x   Mute note
| b   Bend
| pb  Pre-bend
| br  Bend release
| pbr Pre-bend release
| brb Bend release bend

************************************
            
Submit corrections

comments powered by Disqus
↑ Back to top | Misc Television Tabs for Family Guy - Do Her - Handful Of Peter. Lyrics for acoustic guitar and electric guitar. 1 Tablatures and chords are parodies/interpretations of the original songs. You may use it for private study, scholarship, research or language learning purposes only