» » »

Family Guy Tabs (ver.1)

Artists:  A B C D E F G H I J K L M N O P Q R S T U V W X Y Z # 

Family Guy Tabs (ver.1)

Misc Television
Rating:
0/5 (0 votes)
Tabs too difficult? Try these video lessons and learn fast.
                It seems to-day that all you see is vi-o-lence in mov-ies and sex on T. V.
E|--------------------------------------------------------------------------|
B|-----5-------5--------3-------3-------------------------------------------|
G|-5--------5-------5--------5------5--4--4---4--4---4---6---4---3---3-2--3-|
D|--------------------------------------------------------------------------|
A|--------------------------------------------------------------------------|
E|--------------------------------------------------------------------------|

  But where are those good old fa-shioned val-ues    On which we used to re-ly?
E|-----------------------------------------------------------------------------|
B|----------------------------------------------------3---3----5---3---------3-|
G|-5----4----4----4-----6---4---3----3-----4---3-----------------------5--2----|
D|-----------------------------------------------------------------------------|
A|-----------------------------------------------------------------------------|
E|-----------------------------------------------------------------------------|

 Luck-ly there's the fam-il-y Guy. Luck-ly theres a man who po-si-tiv-ly can do
E|-----------------------------------------------------------------------------|
B|-5---5----5-----5---7---5-3--3-----------------------------------------------|
G|-----------------------------------5---5----5---5--5---7---4--4--4---4--4---5|
D|-----------------------------------------------------------------------------|
A|-----------------------------------------------------------------------------|
E|-----------------------------------------------------------------------------|

  All the things that  make us laught and cry
E|-----------------------------------------3-|
B|-------------------------------------3-----|
G|-3---3----3------3-----3---5---3-----------|
D|-------------------------------------------|
A|-------------------------------------------|
E|-------------------------------------------|

   He's a fam-ly   guyyyyyy
E|-------------------------|
B|---------4---6-----7-----|
G|--5---7------------------|
D|-------------------------|
A|-------------------------|
E|-------------------------|

Note: ( If you can get the rhythm  right this is 100% correct. But durring
the "He's a family guy" part they all hit different notes so there's really no
way to play it right but this is the closest)

PLEASE RATE!!!!  Thanks, WeezerGeek182
            
Tabs too difficult? Try these video lessons and learn fast.


comments powered by Disqus
↑ Back to top | Tablatures and chords are parodies/interpretations of the original songs. You may use it for private study, scholarship, research or language learning purposes only