» » »

Eurovision Tabs (ver.2)

Artists:  A B C D E F G H I J K L M N O P Q R S T U V W X Y Z # 

Eurovision Tabs (ver.2)

Misc Television
Rating:
0/5 (0 votes)

Hard to play? Try these video lessons and learn fast.
                (Theme)
Eurovision Theme Tab


This is exactly how it goes, there was one on this site that's not correct. So, tabbed 
out just for fun and because the Eurovision Song Contest is approaching as of now. :)

(If you wan't to add some color, do a trill in the end - it's not included in the 
version but I think it suits the piece nicely. It IS a bit cheesy, though :)

-----------------------------------------------|
----------5---8-5--5--6-8-6-5-6-8--------5-----|
---5--5-7---5----------------------7-5-7---7---|
-5---------------------------------------------|
-----------------------------------------------|
-----------------------------------------------|

-----------------------------------------------|
----------5---8-5--5-6-8-5-6-------------------|
---5--5-7---5----------------7-5-5tr7----------|
-5---------------------------------------------|
-----------------------------------------------|
-----------------------------------------------|
            
Hard to play? Try these video lessons and learn fast. | Correct




comments powered by Disqus
↑ Back to top | Tablatures and chords are parodies/interpretations of the original songs. You may use it for private study, scholarship, research or language learning purposes only