» » »

Misc Television, Eurovision Tabs (ver.1)

Artists:  A B C D E F G H I J K L M N O P Q R S T U V W X Y Z # 

Eurovision Tabs (ver.1)

Misc Television Tabs
 Rating:
4/5 (4 votes)
Eurovision lessons Tabs too difficult? Try these video lessons and learn fast
                (Theme)
Okay. I think this is pretty right... corrections by PM thank you.

e:-------------10-----8-10-8---------------------|
H:-----10-12------12---------10-12-14--10-8-10/6-|
G:--12-------12----------------------------------|
D:-----------------------------------------------|
A:-----------------------------------------------|
E:-----------------------------------------------|

e:-------------10-----8-10-8----------------|
H:-----10-12------12---------10-8-8---------|
G:--12-------12-----------------------------|
D:------------------------------------------|
A:------------------------------------------|
E:------------------------------------------|

Thanks for viewing and plz rate.
            
Submit corrections

comments powered by Disqus
↑ Back to top | Misc Television Tabs for Eurovision. Lyrics for acoustic guitar and electric guitar. Tablatures and chords are parodies/interpretations of the original songs. You may use it for private study, scholarship, research or language learning purposes only