» » »

Misc Television, Eastenders Tabs (ver.3)

Artists:  A B C D E F G H I J K L M N O P Q R S T U V W X Y Z # 

Eastenders Tabs (ver.3)

Misc Television Tabs
Rating:
0/5 (0 votes)
Eastenders lessons Tabs too difficult? Try these video lessons and learn fast
                (Theme)
----------------------------- --------------------- ------------------------|
----------------------------- --------------------- ------------------------|
-------------0----2---------- --------------------- ------------------------|
-------0-2-3------------3---- --3--2---------------- -------------5---------|
---3------------------------- ----------5--3-3------ --------3------5---3---|
----------------------------- ---------------------- --3--3-----------------|

----------------------------- --------------------- ------------------------|
----------------------------- --------------------- ------------------------|
-------------0----2---------- --------------------- ------------------------|
-------0-2-3------------3---- --3--2---------------- -----2--3--5--2--0-----|
---3------------------------- ----------5--3-3------ -------------------3---|
----------------------------- ---------------------- --3--------------------|

--------------------------|
--------------------------|
--------------------------|
--------------------------|
--------------------------|
----7h--8h----------------|          thaanks for veiwing plz rate 5*
            
Submit corrections

comments powered by Disqus
↑ Back to top | Misc Television Tabs for Eastenders. Lyrics for acoustic guitar and electric guitar. Tablatures and chords are parodies/interpretations of the original songs. You may use it for private study, scholarship, research or language learning purposes only