» » »

Misc Television, Dragon Ball Z Tabs (ver.4)

Artists:  A B C D E F G H I J K L M N O P Q R S T U V W X Y Z # 

Dragon Ball Z Tabs (ver.4)

Misc Television Tabs
 Rating:
4/5 (4 votes)
Dragon Ball Z lessons Tabs too difficult? Try these video lessons and learn fast
                (Theme)
Dragon ball Z theme

Have fun. :P

     <                                                                    
     W                     Q    Q    E  Q    E     Q    E  Q     E  Q     
E||-------------------||------------------------|------------------------|
B||-------------------||------------------------|------------------------|
G||-------------------||*-----------------------|------------------------|
D||-------------------||*--9----9---------------|----------5b----L-------|
A||--2----------------||---7----7-------5-------|--7----------------7----|
E||--0----------------||---0----0---------------|------------------------|


  Q    Q    E  Q    E     Q    H.              Q    Q    E  Q    E   
-----------------------|--------------------|-----------------------|
-----------------------|--------------------|-----------------------|
-----------------------|--------------------|-----------------------|
--9----9---------------|--------------------|--9----9---------------|
--7----7-------5-------|--7-----------------|--7----7-------5-------|
--0----0---------------|--------------------|--0----0---------------|


  E  E  E  E  E   E  Q       Q    Q    E  Q    E     Q    H.              
--------------------------|-----------------------|---------------------||
--------------------------|-----------------------|---------------------||
--------------------------|-----------------------|--------------------*||
--------------5b--L-------|--9----9---------------|--------------------*||
--7-----5--7---------7----|--7----7-------5-------|--7------------------||
-----7--------------------|--0----0---------------|---------------------||


   TP        TP          TP       TP          TP       TP        
   H         H           H        H           H        H         
----------------------|--------------------|--------------------|
----------------------|--------------------|--------------------|
*---------------------|--------------------|-----------9--------|
*--7--------10--------|--9--------6--------|--7-----------------|
----------------------|--------------------|--------------------|
----------------------|--------------------|--------------------|


  TP        TP            TP       TP          TP        TP        
  H         H             H        H           H         H         
----------------------||--------------------|---------------------|
----------------------||--------------------|---------------------|
--8------------------*||-----------8--------|--9--------11--------|
-----------10--------*||--7-----------------|---------------------|
----------------------||--------------------|---------------------|
----------------------||--------------------|---------------------|


    Q    Q    E  Q    E     Q    E  Q     E  Q       Q    Q    E  Q    E   
|------------------------|------------------------|-----------------------|
|------------------------|------------------------|-----------------------|
|*-----------------------|------------------------|-----------------------|
|*--9----9---------------|----------5b----L-------|--9----9---------------|
|---7----7-------5-------|--7----------------7----|--7----7-------5-------|
|---0----0---------------|------------------------|--0----0---------------|


  Q    H.              Q    Q    E  Q    E     E  E  E  E  E   E  Q     
--------------------|-----------------------|--------------------------|
--------------------|-----------------------|--------------------------|
--------------------|-----------------------|--------------------------|
--------------------|--9----9---------------|--------------5b--L-------|
--7-----------------|--7----7-------5-------|--7-----5--7---------7----|
--------------------|--0----0---------------|-----7--------------------|


                                                  TP        TP        
  Q    Q    E  Q    E     Q    H.                 H         H         
-----------------------|---------------------||----------------------|
-----------------------|---------------------||----------------------|
-----------------------|--------------------*||*---------------------|
--9----9---------------|--------------------*||*--7--------10--------|
--7----7-------5-------|--7------------------||----------------------|
--0----0---------------|---------------------||----------------------|


  TP       TP          TP       TP          TP        TP          
  H        H           H        H           H         H           
--------------------|--------------------|----------------------||
--------------------|--------------------|----------------------||
--------------------|-----------9--------|--8------------------*||
--9--------6--------|--7-----------------|-----------10--------*||
--------------------|--------------------|----------------------||
--------------------|--------------------|----------------------||


  TP       TP          TP        TP           TP        TP        
  H        H           H         H            H         H         
--------------------|---------------------|----------------------|
--------------------|---------------------|--10--------12--------|
-----------8--------|--9--------11--------|----------------------|
--7-----------------|---------------------|----------------------|
--------------------|---------------------|----------------------|
--------------------|---------------------|----------------------|


   TP        TP                               
   H         H           H         H          
------------10--------|---------------------||
--13------------------|---------------------||
----------------------|---------------------||
----------------------|--7\-----------------||
----------------------|--7\-----------------||
----------------------|--5\-----------------||




Duration Legend
---------------
W - whole
H - half
Q - quarter
E - 8th
S - 16th
. - note dotted



Tablature Legend
----------------
L - tied note
h - hammer on
p - pull off
b - bend
TP - tremolo picking
            
Submit corrections

comments powered by Disqus
↑ Back to top | Misc Television Tabs for Dragon Ball Z. Lyrics for acoustic guitar and electric guitar. Tablatures and chords are parodies/interpretations of the original songs. You may use it for private study, scholarship, research or language learning purposes only