» » »

Misc Television, Doctor Who Tabs (ver.6)

Artists:  A B C D E F G H I J K L M N O P Q R S T U V W X Y Z # 

Doctor Who Tabs (ver.6)

Misc Television Tabs
 Rating:
4/5 (4 votes)
Doctor Who lessons Tabs too difficult? Try these video lessons and learn fast
                (Theme)
-------------------------------------------------------------------------------
                             DOCTOR WHO TITLE CREDITS - BBC
-------------------------------------------------------------------------------

This is the tenth title theme tune and credits. There is a bassline that is the repeated 
played throughout of 000-000-000-333 that stops for the solo.

Tuning: Standard
e|-----------------------------------------------------------------------------|
B|-----------------------------------------------------------------------------|
G|-----------------------------------------------------------------------------|
D|-----------------------------------------------------------------------------|
A|-----------------------------------------------------------------------------|
E|-0--0-3-0--0-3-0-0-3-[0000-0000-0000-3333-]-repeat-this-4-times--------------|

e|---------------------------------------------------------------------------|
B|----------13---------------------------------------------12-12-11-12-------|
G|----15-14----15-14--14-----------------------------------------------------|
D|-12--------------------15-12--15-13-12-13p12-13p12-13p12-------------------|
A|---------------------------------------------------------------------------|
E|---------------------------------------------------------------------------|

e|--------------------12-10-8-10-7-12-10-8-10-7-12-10-8-10-7-5--2-3----------|
B|----12-10-8p7h8--8------------------------------------------------12\------|
G|-12------------------------------------------------------------------------|
D|---------------------------------------------------------------------------|
A|---------------------------------------------------------------------------|
E|---------------------------------------------------------------------------|

e|---------------------------------------------------------------------------|
B|---------------------------------------------------------------------------|
G|----15-14-15-14-15-14-15-14------------------------------------------------|
D|-12-------------------------12-7-8-7\--------------------------------------|
A|---------------------------------------------------------------------------|
E|---------------------------------------------------------------------------|
            
Submit corrections

comments powered by Disqus
↑ Back to top | Misc Television Tabs for Doctor Who. Lyrics for acoustic guitar and electric guitar. Tablatures and chords are parodies/interpretations of the original songs. You may use it for private study, scholarship, research or language learning purposes only