>
 >
Dexter Main Title

Dexter Main Title Bass Tabs

Misc Television - Dexter Main Title chords, tabs, tablatures, lyrics

Guitar lessons | Add/correct | Request | Top 50 tabs Artists:  A B C D E F G H I J K L M N O P Q R S T U V W X Y Z 0-9

Dexter Main Title Bass Tabs – Misc Television

CD, Sheet music, Poster

Do you like Dexter Main Title? Share with your friends now
Bass TabsTabs
0:03
G|--------------|
D|--2---2--20---|
A|-2---2------2-|
D|--------------|

0:08
G|-----------------------------------------------------------------------------|
D|----------2------------------------------------------------------------------|
A|----22r-2---22r-2----77r-7----77r-7---------------------------55r-5----55r-2-|
D|-2----------------7--------7--------4--1010--\-4--1010r-10-5--------5--------|

0:25
G|------------------------------------------------------------------------|
D|-2-2---5-52-22-2--22-52-2-----------2-2--------2-------------4-44-4---4-|
A|----2-2--------------------00---03-3---0---03-3--------------------4-4--|
D|--------------------------------------------------4---44-44-4-----------|

0:42
G|-----------------------------------------------------|
D|-----------------------------------------------------|
A|-----------------------------------------------------|
D|-2-02-25-52-2---02-25-52-2---02-25-52-2---02-25-52-2-|

0:51
G|-----------------------------------------------------|
D|-----------------------------------------------------|
A|-----------------------------00--0-03-3---00--0-30---|
D|---25-55-52-2---02-25-52-2------5------------5-----5-|

1:00
G|-----------------------------------------------------|
D|-----------------------------------------------------|
A|-------0-0----------3-3-------5-5---5-5---------22-2-|
D|---33-3---3-3---33-3---3-3---5---5-5------55-5-------|

1:08
G|-----------------------------------------------------|
D|-----------------------------------------------------|
A|------------2------------2---00--0-30-----00--0-30---|
D|---25-55-55-----02-25-55--------5-----5------5-----5-|

1:17
G|-----------------------------------------------------|
D|-----------------------4-4---------------------------|
A|-------1-14-4---11-14-4------2-22-21--11-------------|
D|---55-5----------------------------------------------|

1:25
G|---------------------------------------------------------------------|
D|---------------------------------------------------------------------|
A|---------------------------------------------------------------------|
D|-2-02-25-52-02--02-25-52-02--02-25-52-02--02-25-52-02--02-25-52-02---|





Comments


Popular Misc Television tabs & chords
Jeeves And Wooster Bass Tabs
Bananaman Theme Tabs
Beverly Hillbillies 1 Tabs
Cillit Bang Theme Tabs
Coronation Street Theme 2 Tabs
Gilligans Island Theme Tabs
Gundam Wing Tabs
How I Met Your Mother Theme Intro Tabs
Inspector Gadget Intro Tabs
Power Rangers Theme Tabs


Song lyrics



↑ Back to top | Tablatures and chords are parodies/interpretations of the original songs. You may use it for private study, scholarship, research or language learning purposes only
© 2014 AZChords.com Contact us | Privacy policy | DMCA | Add/correct tabs | Request tabs | Top 50 tabs