» » »

Misc Television, Danger Man Theme High Wire Tabs (ver.1)

Artists:  A B C D E F G H I J K L M N O P Q R S T U V W X Y Z # 

Danger Man Theme High Wire Tabs (ver.1)

Misc Television Tabs
 Rating:
4/5 (4 votes)
Danger Man Theme High Wire lessons Tabs too difficult? Try these video lessons and learn fast
                High Wire / Theme From Danger Man
By Edwin Astley

Harpsichord intro:

e|-----------------------------------------------------------------|
B|-----------------------------------------------------------------|
G|-----------------------------------------------------------------|
D|-0----------0----------0----0----0----5-4-0----------------------|
A|--3-1--------3-1--------3-1--3-1--3-1----------------------------|
E|-----3----------3----------3----3--------------------------------|

Bass riff (each 4x):
    G           D           A           C
e|-----------|-----------|-----------|-----------------------------|
B|-----------|-----------|-----------|-----------------------------|
G|-----------|-----------|-----------|-----------------------------|
D|-----------|------6h7--|-----------|------4h5--------------------|
A|------4h5--|--5-5------|------6h7--|--3-3------------------------|
E|--3-3------|-----------|--5-5------|-----------------------------|

Harpsichord riff:

e|---3--2-----------------------5--4-------------------------------|
B|---3----3---1-3-1-3s4s3-------5---5--5-8-7-8-8p7p5-3-5-----------|
G|-0-0--------------------2---2-2----------------------------------|
D|-----------------------------------------------------------------|
A|-----------------------------------------------------------------|
E|-----------------------------------------------------------------|

Backup trumpets for harpsichord riff:

e|-3~--2----------------------------5~--4--------------------------|
B|-------3---1-3-1-3-1-3s4-1-3------------5---8-7-8-8p7p5-3-5------|
G|-----------------------------------------------------------------|
D|-----------------------------------------------------------------|
A|-----------------------------------------------------------------|
E|-----------------------------------------------------------------|

Trumpet riff:

e|--2-3-2-3p2-3p2-3-3p2---3-2-3-2-----3-3p2p0----------------------|
B|----------------------3---------3-0---------3-5------------------|
G|-----------------------------------------------------------------|
D|-----------------------------------------------------------------|
A|-----------------------------------------------------------------|
E|-----------------------------------------------------------------|

e|--7-8-7-8p7-8p7-8-8p7---8-7-8-7-----8-8p7p5---10---10-10-10-10---|
B|----------------------8---------8-5---------8--------------------|
G|-----------------------------------------------------------------|
D|-----------------------------------------------------------------|
A|-----------------------------------------------------------------|
E|-----------------------------------------------------------------|

Ending riff 4x then final chord (which is probably wrong!):

e|-----------------|
B|-----------------|
G|------------7~---|
D|-5-4-0------6~---|
A|------------5~---|
E|-----------------|

For more tabs from secret agent films and TV:
            
Submit corrections

comments powered by Disqus
↑ Back to top | Misc Television Tabs for Danger Man Theme High Wire. Lyrics for acoustic guitar and electric guitar. Tablatures and chords are parodies/interpretations of the original songs. You may use it for private study, scholarship, research or language learning purposes only