» » »

Countdown Timer Tabs (ver.1)

Artists:  A B C D E F G H I J K L M N O P Q R S T U V W X Y Z # 

Countdown Timer Tabs (ver.1)

Misc Television
Rating:
0/5 (0 votes)

Hard to play? Try these video lessons and learn fast.
                e---x-xxxx--x-xxxx--x-xxxx--x-xxxx----|
b-------------------------------------|
g-------------------------------------|
d-------------------------------------| do that as many times
a-------------------------------------|  as you want...
E-------------------------------------|

...then...

e-----------------------------|
b-----------------------------|
g-----------------------------|
d---------------------7p5-5---|
a---------------7p5------7----|
E---0-1-2-3-4-5----5h7--------|

You can also do this

d---------------------7p5-5---|
a---------------7p5------7----|
E---2-3-4-5-6-7----5h7--------|
            
Hard to play? Try these video lessons and learn fast. | Correct




comments powered by Disqus
↑ Back to top | Tablatures and chords are parodies/interpretations of the original songs. You may use it for private study, scholarship, research or language learning purposes only