» » »

Coronation Street Tabs (ver.3)

Artists:  A B C D E F G H I J K L M N O P Q R S T U V W X Y Z # 

Coronation Street Tabs (ver.3)

Misc Television
Rating:
0/5 (0 votes)

Hard to play? Try these video lessons and learn fast.
                (Theme)
e|-7-------------------5---------------------7-----10-----------11-----------------------|
B|-----10--8--10---8-------8--6--8---6---10----10-------11---12----------0--1--0---------|
G|---------------9-----------------7---------------------------------2------------2--0---|
D|---------------------------------------------------------------------------------------|
A|---------------------------------------------------------------------------------------|
E|---------------------------------------------------------------------------------------|

e|-7----------7-----7------7-12--7----------------------12---7------12---10---7--8--10--12--15--|
B|-----10--8-----8----8-10----------10---10-8-10---8-10---------10------------------------------|
G|-----------------------------------------------9----------------------------------------------|
D|----------------------------------------------------------------------------------------------|
A|----------------------------------------------------------------------------------------------|
E|----------------------------------------------------------------------------------------------|
            
Hard to play? Try these video lessons and learn fast. | Correct




comments powered by Disqus
↑ Back to top | Tablatures and chords are parodies/interpretations of the original songs. You may use it for private study, scholarship, research or language learning purposes only