» » »

Misc Television, Coronation Street Tabs (ver.2)

Artists:  A B C D E F G H I J K L M N O P Q R S T U V W X Y Z # 

Coronation Street Tabs (ver.2)

Misc Television Tabs
Rating:
0/5 (0 votes)
Coronation Street lessons Tabs too difficult? Try these video lessons and learn fast
                (Theme)
...CORONATION STREET... TV Theme
-----------------------.........

*from the TV Series 1960*


*INSTRUMENTAL*


*CAPO 1st FRET*

(Original Key: G#)


Verse 1:

    G  G7     Cmaj7    Am7   F  F7      Bb      Bbmaj7
e|------------------------|------------------------|
B|--0---------------------|------------------------|
G|-------2-0--2-----0-----|--2----0-----0----------|
D|---------------2--------|----------3-----0-3-----|
A|------------------------|------------------------|
E|------------------------|------------------------|

   Ebmaj7  Eb7     D7            G    Fdim, D7 (n.c) (D7)
e|------------------------|------------------------|---------------|
B|-----------------3------|---------3--------------|-------1-------|
G|--0--------3--0---------|--3-3-4-----------------|--2-4-----0-2--|
D|------------------------|------------------------|---------------|
A|------------------------|------------------------|---------------|
E|------------------------|------------------------|---------------|

Verse 2:

    G  G7     Cmaj7    Am7   F  F7      Bb      Bbmaj7
e|------------------------|------------------------|
B|--0---------------------|------------------------|
G|-------2-0--2-----0-----|--2----0-----0----------|
D|---------------2--------|----------3-----0-3-----|
A|------------------------|------------------------|
E|------------------------|------------------------|

   Ebmaj7  Eb7     D7            G    Fdim, D7 (n.c) (D7)          G
e|------------------------|------------------------|------------------|
B|-----------------3------|---------3--------------|-------1----------|
G|--0--------3--0---------|--3-3-4-----------------|--2-4-----0-2--0--|
D|------------------------|------------------------|------------------|
A|------------------------|------------------------|------------------|
E|------------------------|------------------------|------------------|


CHORD DIAGRAMS:
---------------

   G       G7     Cmaj7    Am7     F       F7

 EADGBE  EADGBE  EADGBE  EADGBE  EADGBE  EADGBE
 320003  323000  x32000  x02013  133211  131211

   Bb    Bbmaj7  Ebmaj7    Eb7     D7     Fdim

 EADGBE  EADGBE  EADGBE  EADGBE  EADGBE  EADGBE
 x13331  x13231  x68786  x68686  xx0212  xx0101
                                    ____
           _             __   __   |  __|  __    __
          | |   _   _   |  \ /  |  | |__   \ \  / /
  _____   | |  | | | |  |       |  |__  |   \ \/ /
 |  ___|  | |  | | | |  | |\_/| |   __| |    \  /
 | |= =   | |  | |_| |  | | = | |  |____|     | |
 | |      | |  |_____|  | |   | |   = = =     | |
 | |___   | |   = = =   | |   | |             | |
 |_____|  | |           |_|   |_|             | |
          |_______|  Joel from cLuMsY, 2008    =
            

comments powered by Disqus
↑ Back to top | Misc Television Tabs for Coronation Street. Lyrics for acoustic guitar and electric guitar. Tablatures and chords are parodies/interpretations of the original songs. You may use it for private study, scholarship, research or language learning purposes only