» » »

Misc Television, Corner Gas Thunderface - Capital Cash Bass tabs (ver.1)

Artists:  A B C D E F G H I J K L M N O P Q R S T U V W X Y Z # 

Corner Gas Thunderface - Capital Cash Bass tabs (ver.1)

Misc Television Tabs
 Rating:
4/5 (4 votes)
Corner Gas Thunderface - Capital Cash lessons Tabs too difficult? Try these video lessons and learn fast
1
                Thunderface - Capital Cash Bass
This is from Corner Gas, and it's a pretty easy and fun song!
Plus, Corner Gas is a great show!
So, please rate, comment, and enjoy!

In the episode Rock On! everything is pretty well played twice, but in the season 2 music video
on the disc, it's just played how I'm tabbing it out here.Really though, you can play these parts
as often as you want, it's your choice!

Intro/Verse:

1,2,3,4!
G|-----------------------------------------------------------------|
D|-----------------------------------------------------------------|
A|-----------------------------------------------------------------|
E|-5-5-5-5-5-5-5-5-3-3-3-3-3-3-3-3-1-1-1-1-1-1-1-1-1-1-1-1-1-1-1-1-|x3


Chorus:

G|-----------------------------|
D|-----------------------------|
A|-----------------------------|
E|-0-0-0-0-0-0-0-0-0-0-0-0--1--|x3

G|---------------------------------|
D|---------------------------------|
A|---------------------------------|
E|-0-0-0-0-0-0-0-0-0-0-0-0-0-0-0-0-|


During Guitar Solo:

G|-----------------------------------------------------------------|
D|-----------------------------------------------------------------|
A|-----------------------------------------------------------------|
E|-5-5-5-5-5-5-5-5-3-3-3-3-3-3-3-3-1-1-1-1-1-1-1-1-1-1-1-1-1-1-1-1-|x2


Chorus:

G|-----------------------------|
D|-----------------------------|
A|-----------------------------|
E|-0-0-0-0-0-0-0-0-0-0-0-0--1--|x3

G|---------------------------------|
D|---------------------------------|
A|---------------------------------|
E|-0-0-0-0-0-0-0-0-0-0-0-0-0-0-0-0-|


Outro:

G|-----------------------------------------------------------------|
D|-----------------------------------------------------------------|
A|-----------------------------------------------------------------|
E|-5-5-5-5-5-5-5-5-3-3-3-3-3-3-3-3-1-1-1-1-1-1-1-1-1-1-1-1-1-1-1-1-|

G|-----------------------------------------------------------------------|
D|-----------------------------------------------------------------------|
A|-----------------------------------------------------------------------|
E|-5-5-5-5-5-5-5-5-3-3-3-3-3-3-3-3-1-1-1-1-1-1-1-1--1--1--1--1--1--1/7\5-|

G|----------------------------------------|
D|----------------------------------------|
A|----------------------------------------|
E|-5-5-5-5-5-5-5-5-5-5-5-5-5-5-5--5--5--5-|


| /  slide up
| \  slide down 
===============================================================================
            
Submit corrections

comments powered by Disqus
↑ Back to top | Misc Television Bass for Corner Gas Thunderface - Capital Cash. Lyrics for acoustic guitar and electric guitar. 1 Tablatures and chords are parodies/interpretations of the original songs. You may use it for private study, scholarship, research or language learning purposes only