» » »

Misc Television, Corner Gas Thunderface - Capital Cash Tabs (ver.1)

Artists:  A B C D E F G H I J K L M N O P Q R S T U V W X Y Z # 

Corner Gas Thunderface - Capital Cash Tabs (ver.1)

Misc Television Tabs
 Rating:
4/5 (4 votes)
Corner Gas Thunderface - Capital Cash lessons Tabs too difficult? Try these video lessons and learn fast
1
                Thunderface - Capital Cash
This is from Corner Gas, and it's a pretty easy and fun song!
Plus, Corner Gas is a great show!
So, please rate, comment, and enjoy!

In the episode Rock On! everything is pretty well played twice, but in the season 2 music video
on the disc, it's just played how I'm tabbing it out here.

Verse:

e|-----------------------------------------------------------------|
B|-----------------------------------------------------------------|
G|-----------------------------------------------------------------|
D|-7-7-7-7-7-7-7-7-5-5-5-5-5-5-5-5-3-3-3-3-3-3-3-3-3-3-3-3-3-3-3-3-|
A|-7-7-7-7-7-7-7-7-5-5-5-5-5-5-5-5-3-3-3-3-3-3-3-3-3-3-3-3-3-3-3-3-|
E|-5-5-5-5-5-5-5-5-3-3-3-3-3-3-3-3-1-1-1-1-1-1-1-1-1-1-1-1-1-1-1-1-|x3
PM . . . . . . . . . . . . . . . . . . . . . . . . . . . . . . . .


Chorus:

e|-----------------------------|
B|-----------------------------|
G|-----------------------------|
D|-2-2-2-2-2-2-2-2-2-2-2-2--3--|
A|-2-2-2-2-2-2-2-2-2-2-2-2--3--|
E|-0-0-0-0-0-0-0-0-0-0-0-0--1--|x3
PM . . . . . . . . . . . .

e|---------------------------------|
B|---------------------------------|
G|---------------------------------|
D|-2-2-2-2-2-2-2-2-2-2-2-2-2-2-2-2-|
A|-2-2-2-2-2-2-2-2-2-2-2-2-2-2-2-2-|
E|-0-0-0-0-0-0-0-0-0-0-0-0-0-0-0-0-|
PM . . . . . . . .

Solo:

e|------------------------------------------|
B|-10--10-10-8--10-8-6-6-6-6-6--6-6-6-6-6-6-|
G|------------------------------------------|
D|------------------------------------------|
A|------------------------------------------|
E|------------------------------------------|

e|-----------------------------------------------------------|
B|-10-10-10-12-10-10--8-8-8-10-8-8--6-6-6-6-6-6--6-6-6-6-6-6-|
G|-----------------------------------------------------------|
D|-----------------------------------------------------------|
A|-----------------------------------------------------------|
E|-----------------------------------------------------------|

Chorus:

e|-----------------------------|
B|-----------------------------|
G|-----------------------------|
D|-2-2-2-2-2-2-2-2-2-2-2-2--3--|
A|-2-2-2-2-2-2-2-2-2-2-2-2--3--|
E|-0-0-0-0-0-0-0-0-0-0-0-0--1--|x3
PM . . . . . . . . . . . .

e|---------------------------------|
B|---------------------------------|
G|---------------------------------|
D|-2-2-2-2-2-2-2-2-2-2-2-2-2-2-2-2-|
A|-2-2-2-2-2-2-2-2-2-2-2-2-2-2-2-2-|
E|-0-0-0-0-0-0-0-0-0-0-0-0-0-0-0-0-|
PM . . . . . . . .

Outro:

e|-----------------------------------------------------------------|
B|-----------------------------------------------------------------|
G|-----------------------------------------------------------------|
D|-7-7-7-7-7-7-7-7-5-5-5-5-5-5-5-5-3-3-3-3-3-3-3-3-3-3-3-3-3-3-3-3-|
A|-7-7-7-7-7-7-7-7-5-5-5-5-5-5-5-5-3-3-3-3-3-3-3-3-3-3-3-3-3-3-3-3-|
E|-5-5-5-5-5-5-5-5-3-3-3-3-3-3-3-3-1-1-1-1-1-1-1-1-1-1-1-1-1-1-1-1-|
PM . . . . . . . . . . . . . . . . . . . . . . . . . . . . . . . .

e|-------------------------------------------------------------------------------------|
B|-------------------------------------------------------------------------------------|
G|-------------------------------------------------------------------------------------|
D|-7-7-7-7-7-7-7-7-5-5-5-5-5-5-5-5-3-3-3-3-3-3-3-3-3-3-3-3-3-3-3-3-3-3-3-3-3-3-3-3/7\5-|
A|-7-7-7-7-7-7-7-7-5-5-5-5-5-5-5-5-3-3-3-3-3-3-3-3-3-3-3-3-3-3-3-3-3-3-3-3-3-3-3-3/7\5-|
E|-5-5-5-5-5-5-5-5-3-3-3-3-3-3-3-3-1-1-1-1-1-1-1-1-1-1-1-1-1-1-1-1-1-1-1-1-1-1-1-1/5\3-|
PM . . . . . . . . . . . . . . . . . . . . . . . . . . . . . . . .

e|--------------------------|
B|-10-8-10-13-10-8----------|
G|-----------------9-7-5----|
D|-----------------------7--|
A|--------------------------|
E|--------------------------|

************************************

| /   slide up
| \   slide down
| h   hammer-on
| p   pull-off
| ~   vibrato
| +   harmonic
| x   Mute note
| b   Bend
| pb  Pre-bend
| br  Bend release
| pbr Pre-bend release
| brb Bend release bend

************************************
            
Submit corrections

comments powered by Disqus
↑ Back to top | Misc Television Tabs for Corner Gas Thunderface - Capital Cash. Lyrics for acoustic guitar and electric guitar. 1 Tablatures and chords are parodies/interpretations of the original songs. You may use it for private study, scholarship, research or language learning purposes only