» » »

Misc Television, Blue Heelers Tabs (ver.1)

Artists:  A B C D E F G H I J K L M N O P Q R S T U V W X Y Z # 

Blue Heelers Tabs (ver.1)

Misc Television Tabs
Rating:
0/5 (0 votes)
Blue Heelers lessons Tabs too difficult? Try these video lessons and learn fast
                "Blue Heelers" Theme Song

Here's the theme song to the top Aussie drama Blue Heelers.  It's quite
a catchy tune and is simple enough to play.  All it is, really, is a
few chords with a couple of walk-downs and walk-ups.  I've written the
chords underneath the timing indicators to help with the positioning of
the fingers.


Note - Each "-" is equal to a semiquaver
     - p = pull-off


  1   2   3   4   1   2   3   4   1   2   3   4   1   2   3   4
  D
E|----2-----2-2-2-----2-----2-2-2-----2-----2-2-2-----2-----2-2-2-|
B|----3-----3-3-3-----3-----3-3-3-----3-----3-3-3-----3-----3-3-3-|
G|----2-----2-2-2-----2-----2-2-2-----2-----2-2-2-----2-----2-2-2-|
D|0---------------0---------------0---------------0---------------|
A|----------------------------------------------------------------|
E|----------------------------------------------------------------|

                          [repeat this bar]


  1   2   3   4   1   2   3   4   1   2   3   4
  C       C/B C/A G               F
E|----0---------------3-----3---------1-----------|
B|----1---------------0-----0---------1-----------|
G|----0---------------0-----0---------2-----------|
D|----2---------------0-----0---------3---3---2---|
A|3-------2---0-----------------------3-----------|
E|----------------3-----------0---1---------------|


  1   2   3   4   1   2   3   4   1   2   3   4   1   2   3   4
  D
E|----2-----2-2-2-----2-----2-2-2-----2-----2-2-2-----2-----2-2-2-|
B|----3-----3-3-3-----3-----3-3-3-----3-----3-3-3-----3-----3-3-3-|
G|----2-----2-2-2-----2-----2-2-2-----2-----2-2-2-----2-----2-2-2-|
D|0---------------0---------------0---------------0---------------|
A|----------------------------------------------------------------|
E|----------------------------------------------------------------|

                      [repeat last two bars]


  1   2   3   4   1   2   3   4   1   2   3   4   1   2   3   4
  G       C       Em  D           G       C       Em  D
E|----3-------0-------------2-2-2-----3-------0-------------2-2-2-|
B|----0-------1-------------3-3-3-----0-------1-------------3-3-3-|
G|----0-------0-------------2-2-2-----0-------0-------------2-2-2-|
D|----0-------2---2---0---------------0-------2---2---0-----------|
A|2-------3-----------------------2-------3-----------------------|
E|----------------------------------------------------------------|

  1   2   3   4   1   2   3   4   1   2   3   4
  G       C       Em  D           F       G
E|----3-------0-------------2-2-2-----1-------3---|
B|----0-------1-------------3-3-3-----1-------3---|
G|----0-------0-------------2-2-2-----2-------4---|
D|----0-------2---2---0---------------3-------5---|
A|2-------3---------------------------3-------5---|
E|--------------------------------1-------3-------|

                 [repeat whole song then]
                 [continue below ...    ]


  1   2   3   4   1   2   3   4   1   2   3   4   1   2   3   4
  D   Dsus4  etc...
E|2---3---2---3---2---3p2-----3---2---3---2---3---2---3p2-----3---|
B|3---3---3---3---3---3-------3---3---3---3---3---3---3-------3---|
G|2---2---2---2---2---2-------2---2---2---2---2---2---2-------2---|
D|0---0---0---0---0---0---0---0---0---0---0---0---0---0---0---0---|
A|----------------------------------------------------------------|
E|----------------------------------------------------------------|

  1   2   3   4   1   2   3   4   1   2   3   4   1   2   3   4
  G       C       Em  D           G       C       Em  D
E|----3-------0-------------2-2-2-----3-------0-------------2-2-2-|
B|----0-------1-------------3-3-3-----0-------1-------------3-3-3-|
G|----0-------0-------------2-2-2-----0-------0-------------2-2-2-|
D|----0-------2---2---0---------------0-------2---2---0-----------|
A|2-------3-----------------------2-------3-----------------------|
E|----------------------------------------------------------------|

  1   2   3   4   1   2   3   4   1   2   3   4   1   2   3   4
  G       C       Em  D           F       G       D
E|----3-------0-------------2-2-2-----1-------3------22---2-------|
B|----0-------1-------------3-3-3-----1-------3------33---3-------|
G|----0-------0-------------2-2-2-----2-------4------22---2-------|
D|----0-------2---2---0---------------3-------5---0---------------|
A|2-------3---------------------------3-------5-------------------|
E|--------------------------------1-------3-----------------------|
            

comments powered by Disqus
↑ Back to top | Misc Television Tabs for Blue Heelers. Lyrics for acoustic guitar and electric guitar. Tablatures and chords are parodies/interpretations of the original songs. You may use it for private study, scholarship, research or language learning purposes only