>
 >
Bbc World Championship Snooker Theme

Bbc World Championship Snooker Theme Guitar Tabs

Misc Television - Bbc World Championship Snooker Theme chords, tabs, tablatures, lyrics

Guitar lessons | Add/correct | Request | Top 50 tabs Artists:  A B C D E F G H I J K L M N O P Q R S T U V W X Y Z 0-9

Bbc World Championship Snooker Theme Guitar Tabs – Misc Television

CD, Sheet music, Poster

Do you like Bbc World Championship Snooker Theme? Share with your friends now
Tabs
BBC World Championship Snooker Theme

 


  
  A7

  Gtr I
|-------------------------------|
|-------------------------------|
|-----------------------------x-|
|-5h7-----5h7---7-----7-7-7-----|
|-0---x-0-0---0-0-(0)-0-0-0-x---|
|-------------------------------|


  G5 D5 A5                    A7
|---------------------------|-----------------------------|
|---------------------------|-----------------------------|
|----2--------2----------x--|-----------------------------|
|----0--2-(2)---2-2--x------|-5h7---5-5h7---7-----7-7-7---|
|-5-----0-(0)---0-0-(0)-(0)-|-0---x-0-0---0-0-(0)-0-0-0---|
|-3-------------------------|-----------------------------|


  G  D5 A5
|--------------------------|
|-3------------------------|
|-4-----------2---2-2------|
|-5--0--2-(2)-2-2-2-2--(5)-|
|-5-----0-(0)---0-0-0------|
|-3------------------------|


  A7                             G  D5 A
|------------------------------|----------------------||
|------------------------------|-3--3--2-(2)-2-(2)----||
|------------------------------|-4--2--2-(2)-2-(2)--x-||
|-5h7---x-5h7---7-----7-7-7-7--|-5--0--2-(2)-2-(2)----||
|-0---x-0-0---0-0-(0)-0-0-0-0--|-5-----0-(0)-0-(0)----||
|------------------------------|-3--------------------||


    $
    E         C           G           F  Bb E7
||----------------------------------|-------------------------|
||o---------------------------------|-------------------------|
||----------------------------------|-------------------------|
||--2-2-2-1-0-----------------------|-------------------------|
||o-----------3-(3)-2-0-----------0-|----1------------0h2-0---|
||----------------------3-(3)-3-3---|-1-----0-(0)-0h2-------2-|


                                                       To Coda
  A                   D/A      A         G  D/FA
|--------------------------------------|---------------0------x-||
|--------------------------------------|-3--3--2-(2)---2-2------||
|-------------2-(2)-2-4b5==(4)r(4)-2---|-4--2--2-(2)-2-2-2-2----||
|---------2h4------------------------4-|-5--4--2-(2)-2-2-2-2----||
|-0-2h3h4------------------------------|------------------------||
|--------------------------------------|------------------------||


  1.
  A                   D   A         G   D/E             A
|-----5-----5-----5-----5-----5---|---5-----5-----5-----5-5--|
|-5h7---5h7---5h7---5h7---5h7---5h|=7---5h7---5h7---5h7------|
|---------------------------------|--------------------------|
|---------------------------------|--------------------------|
|---------------------------------|--------------------------|
|---------------------------------|--------------------------|


  A                              D     A
|-------------12--------------------------------|
|-12b13==(12)----12r(12)-10------10-12-10-12-10-|
|---------------------------9h11----------------|
|-----------------------------------------------|
|-----------------------------------------------|
|-----------------------------------------------|


         G            D               A
|--------------------------------------------------------||
|-12b14==(12)r-12b14==(12)-12r(12)-10--------10h12-10\--o||
|-------------------------------------9-9h11-------------||
|--------------------------------------------------------||
|-------------------------------------------------------o||
|--------------------------------------------------------||


  2.
  E7                          E7
  PM------------------------------------------------|
                                                       5x
|-------------------------||---------------------------||
|-------------------------||o-------------------------o||
|-------------------------||---------------------------||
|-0h2-2--2-----2--2-2-2-2-||--0h2-2--2-----2--2-2-2-2--||
|-0h2-2--2-----2--2-2-2-2-||o-0h2-2--2-----2--2-2-2-2-o||
|-0---0--0-0-0-0--0-0-0-0-||--0---0--0-0-0-0--0-0-0-0--||


  A7              D     A7     G  D  A
|----------------------------|----------------------|
|----------------------------|----------------------|
|----------------------------|----7--2-(2)--(2)-x-x-|
|-5h7--7-5h7---7--7-7-7-7-7--|-5--7--2-(2)--(2)-x-x-|
|-0----0-0---0-0--0-0-0-0-0--|-5--5--0-(0)--(0)-----|
|----------------------------|-3--------------------|


                                   D.S. al Coda
  A7              D   A7   G  D  A
|------------------------|----------------------||
|------------------------|----------------------||
|------------------------|----7--2-(2)-2-2-2-2--||
|-5h7----5h7-7--7-7-7-7--|-5--7--2-(2)-2-2-2-2--||
|-0----0-0---0----0-0-0--|-5--5--0-(0)-0-0-0-0--||
|------------------------|-3--------------------||


  &
  E                        E
|------------------------|------------------------|
|------------------------|------------------------|
|------------------------|------------------------|
|-0h2-2--------2----2----|-0h2-2--------2----2----|
|-0h2-2--2-(2)-2--2-2-2--|-0h2-2--2-(2)-2--2-2-2--|
|-0------0-(0)----0---0--|-0------0-(0)----0---0--|


  E                      A      D      A
|----------------------|--------------------*|
|----------------------|--2--2--3--3-3-2----*|
|----------------------|--2--2--2--2-2-2----*|
|-0h=2--2--2-(2)-2-----|--2--2--4--4-4-2----*|
|-0h=2--2--2-(2)-2---0-|-(0)-----------0----*|
|-0-(0)-0--0-(0)-0-----|--------------------*|





Comments


Popular Misc Television tabs & chords
Mcdonalds Theme Bass Tabs
Scrubs - Guy Love Chords
Cheers Tabs
Daily Show Tabs
Future Shop Commercial Tabs
Gerber Commercial United Babies Tabs
Neds Declassified 1 Tabs
Popeye The Sailor Tabs
Rugrats Theme 4 Tabs
X Games Tabs


Song lyrics



↑ Back to top | Tablatures and chords are parodies/interpretations of the original songs. You may use it for private study, scholarship, research or language learning purposes only
© 2014 AZChords.com Contact us | Privacy policy | DMCA | Add/correct tabs | Request tabs | Top 50 tabs