» » »

Two Out Of Three Ain't Bad Bass tabs (ver.1)

Artists:  A B C D E F G H I J K L M N O P Q R S T U V W X Y Z # 

Two Out Of Three Ain't Bad Bass tabs (ver.1)

Meat Loaf
Rating:
0/5 (0 votes)

Tabs too difficult? Try these video lessons and learn fast.
                "-----------------------------------------------------------------------------
                   TWO OUT OF THREE AIN'T BAD - Meat Loaf
-----------------------------------------------------------------------------


Tuning: E A D G

s = sixteenth note


INTRO    x3
|----------|----9---|
|:--------:|--------|
|:--------:|--------|
|----------|------0/|


VERSE 1
|----|----|----|----|--------|--------|--------|--------|
|----|----|----|----|--------|--------|---22---|--------|
|----|----|5---|----|--------|--------|--------|--------|
|5---|4---|----|5---|5---4---|2-------|0-------|-0------|


|----|----|----|--------|--------|--------|--------|--------|
|----|----|----|--------|--------|--------|---22-2-|---222--|
|----|----|5---|--------|--------|--------|--------|--------|
|5---|4---|----|5------0|5---4---|2-------|0------0|000---0/|


PRECHORUS
|--------|--------|--------|--------|--------|--------|----------|--------|
|--------|--------|--------|--------|--------|--------|--555-----|---55-55|
|5--55-7-|------4-|5--55-7-|------4-|5--55-7-|--------|-------3/5|--------|
|--------|5--57---|--------|5--57---|--------|55-22-2-|3---------|3-------|


|--------|--------|---------|--------|
|--------|--------|---------|--------|
|5--555-5|7---7---|77-------|77------|
|--------|--00-007|---0-00/7|---0-24-|


CHORUS
|--------|--------|--------|--------|--------|--------|------10----|--------|
|----7-6-|4------4|--------|--664--4|--------|--------|--------10--|7\4444-4|
|---7----|---4--4-|5--57-5-|4-----4-|2--22---|2--22-22|5555/8----8-|------4-|
|5-------|----2---|--------|--------|-------2|--------|-----------8|--------|

                                            ss
|---44-----|----4--4/|-----10----|--------|---------|
|-------2h4|---------|-------10--|--------|---------|
|2---------|2--2-----|5--5/----8-|-------7|000000002|
|----------|---------|----------8|5--55---|---------|


BRIDGE
|--------|--------|--------|--------|
|--------|--------|--------|--------|
|5--55-7-|------4-|5--55-7-|------4-|
|--------|5--57---|--------|5--57---|


|--------|--------|----------|--------|--------|---------|
|--------|--------|----------|--------|--------|------.--|
|5--55-7-|--------|-------3/5|--------|7-------|------7\-|
|--------|5--55-5-|3--33-----|3--33-3-|--------|---------|


BREAK
|--------|--------|--------|--------|--------|--------|--------|-----------|
|--------|--------|--------|--------|--------|--------|--------|-----------|
|4--44---|4--44--4|5--55---|5--55--5|4--44---|4--44--4|5-555-5-|5/7--7-7/7-|
|-------4|--------|-------5|------5-|-------4|------4-|--------|---00-0---7|


VERSE 2                     ss        ss
|--------|--------|-----------|---------|--------|--------|----------|----------|
|--------|--------|-----------|-------7-|--------|---44---|----------|----------|
|--------|4--44--4|5--55/7-75-|------7-7|--------|--------|5/7-------|5/7-----7-|
|5--55--5|--------|----------7|5--55----|5--54--4|2------2|----00-000|---000-7-7|

                            ss
|--------|--------|-----------|--------|---------|--------|------------|----------|
|--------|--------|-----------|--------|---------|--------|------------|----------|
|--------|4--44--4|5--55/7-75-|--------|---------|--------|--5/7-7-----|--7-7-----|
|5--55--5|--------|----------7|5--55-0-|/5--54--4|2-022-02|0----7--5/70|-0-----5/7|


|--------|---------|---------|
|--------|---------|---------|
|---7--7-|---------|7-7~\----|
|00---7-7|00-0-0/57|-----0244|


OUTRO CHORUS
|--------|--------|--------|--------|--------|--------|---7/10----|--------|
|----7-6-|4------4|--------|-------4|--------|--------|-------10--|--------|
|---7----|---4--4-|5--57-75|4-4---4-|2--22---|2--22-24|5-5------8-|--------|
|5-------|----2---|--------|---42---|--------|--------|----------8|5-555024|

                                                                          ss
|--------|--------|--------|--------|--------|--------|-----10----|---------|
|--------|----4---|--------|--664---|--------|--------|-------10--|---44-42-|
|--------|---4--4-|5--57-5-|4------4|2--22---|2--22-24|5-5/8----8\|--------4|
|5--05-4-|2-------|--------|------2-|-------2|--------|-----------|2-2------|


|----4-----|----4-----|---7/10----|--------|--------|--------|--------|--------|
|-------2/4|------4---|-------10--|--------|--------|--------|7~~~~~~~|~~~~~~~~|
|2--2------|2--2---2/3|5-5------8\|0-------|4------4|5-----7-|--------|--------|
|----------|----------|-----------|--------|--------|--------|--------|--------|
"            
Tabs too difficult? Try these video lessons and learn fast.


comments powered by Disqus
↑ Back to top | Tablatures and chords are parodies/interpretations of the original songs. You may use it for private study, scholarship, research or language learning purposes only