» » »

Misc Television, A Team Tabs (ver.5)

Artists:  A B C D E F G H I J K L M N O P Q R S T U V W X Y Z # 

A Team Tabs (ver.5)

Misc Television Tabs
Rating:
0/5 (0 votes)
A Team lessons Tabs too difficult? Try these video lessons and learn fast
                (Theme)

The intro starts thusly;

'Ten years ago (or 'in 1972' as stated in the later seasons), a crack commando unit was
sent to prison by a military court for a crime they didn't commit. These men promptly
escaped from a maximum security stokade to the Los Angeles Underground. Today, still 
wanted by the government, they survive as soldiers of fortune. If you have a problem, if no one
else can help and if you can find them, maybe you can hire the A-Team.'

Then the music;

e|-3-3---3-----------3-3---5-3---1-0---------3-3---3------------------------------------------|
B|-----3-----1-3---------3-----------3-1-3-------3---0-1-3-------0-1-3---1-0---1-0-----0-1-3--|
G|---------------0-----------------------------------------0---2-------------2----2-2---------|
D|--------------------------------------------------------------------------------------------|
A|--------------------------------------------------------------------------------------------|
D|--------------------------------------------------------------------------------------------|

e|-------------------|
B|-1-0---1-0---------|
G|-----0-----2-0---0-|
D|---------------4---|
A|-------------------|
D|-------------------|


e|-------------------------------------------------------------------------------------|
B|-------------------------------------------------------------------------------------|
G|-------------------------------------------------------------------------------------|
D|-5-5-3-5-3-5-3-5-10-8--5-5-3-5-3-1-1-1-3---5-5-3-5-3-5-3-5-10-8--5-5-3-5-3-1-1-1-0---|
A|-5-5-3-5-3-5-3-5-10-8--5-5-3-5-3-1-1-1-3---5-5-3-5-3-5-3-5-10-8--5-5-3-5-3-1-1-1-0---|
D|-5-5-3-5-3-5-3-5-10-8--5-5-3-5-3-1-1-1-3---5-5-3-5-3-5-3-5-10-8--5-5-3-5-3-1-1-1-0---|

This part I'm a bit unsure about. It's meant to be the string bit.

e|-3---------5-3-0--1---------3-10-8---8-7-5-7---------------3>15-|
B|-----0-1-3----------1---1-3------------------8--7-5-3-1--3------|
G|----------------------------------------------------------------|
D|----------------------------------------------------------------|
A|----------------------------------------------------------------|
D|----------------------------------------------------------------|

e|-3-3---3-----------3-3---5-3---1-0---------3-3---3-------------------------------3-|
B|-----3-----1-3---------3-----------3-1-3-------3---0-1-3-----1-0---1-0---1-0-1-3---|
G|---------------0-----------------------------------------0-------0-----0-----------|
D|-----------------------------------------------------------------------------------|
A|-----------------------------------------------------------------------------------|
D|-----------------------------------------------------------------------------------|
            
Submit corrections

comments powered by Disqus
↑ Back to top | Misc Television Tabs for A Team. Lyrics for acoustic guitar and electric guitar. Tablatures and chords are parodies/interpretations of the original songs. You may use it for private study, scholarship, research or language learning purposes only