» » »

A Team Tabs (ver.2)

Artists:  A B C D E F G H I J K L M N O P Q R S T U V W X Y Z # 

A Team Tabs (ver.2)

Misc Television
Rating:
0/5 (0 votes)
Tabs too difficult? Try these video lessons and learn fast.
                (Intro)
A-Team-Theme

E-----------------|-----------------|-----------------|-----------------|
B-----------------|-----------------|-----------------|-----------------|
G-----------------|-----------------|-----------------|-----------------|
D---3--3-----3----|-----------------|---3-----5--3----|--1--0-----------|
A---------3-------|---1---3---------|------3----------|-------3--1--3---|
E-----------------|-----------1-----|-----------------|-----------------|

or

E---3--3-----3----|-----------------|---3-----5--3----|--1--0-----------|
B---------3-------|---1---3---------|------3----------|-------3--1--3---|
G-----------------|-----------0-----|-----------------|-----------------|
D-----------------|-----------------|-----------------|-----------------|
A-----------------|-----------------|-----------------|-----------------|
E-----------------|-----------------|-----------------|-----------------|


here ya go with the first (and most known) part of the a-team intro riff.
Have Fun!

TheUtzk

-Smell The Sound!-
            
Tabs too difficult? Try these video lessons and learn fast.


comments powered by Disqus
↑ Back to top | Tablatures and chords are parodies/interpretations of the original songs. You may use it for private study, scholarship, research or language learning purposes only