» » »

Misc Television, 7th Heaven Tabs (ver.1)

Artists:  A B C D E F G H I J K L M N O P Q R S T U V W X Y Z # 

7th Heaven Tabs (ver.1)

Misc Television Tabs
 Rating:
3.4/5 (5 votes)
7th Heaven lessons Tabs too difficult? Try these video lessons and learn fast
                (Theme)
I figured the best show ever deserves the best tab ever. Since there's no decent tab on 
world wide web, I thought I'd do it myself. 7th Heaven rocks!

Intro:

   G     C      G       D
----------------------------0--2---------------------|
---------------------------3-------------------------|
-----7-7-7--5-4-4h5-5-4-2-2--------------------------|
---5-------------------------------------------------|
-----------------------------------------------------|
-----------------------------------------------------|


         G                       C           G               D
Seventh heaven, when I see their happy faces smiling back at me
         G                        C                        G  
           D
Seventh heaven, I know there's no greater feeling that the love of a family
             Em  C           G                    D
Where do you gooooo when the world don't treat you right
              Em  C                G                     D
The answer is hooooome, that's the one place that you'll find
        G      C             G            D
Seventh heaven mmmm  seventh heaven

The lead guitar over the verse is the same as the intro;

----------------------------0--2---------------------|
---------------------------3-------------------------|
-----7-7-7--5-4-4h5-5-4-2-2--------------------------|
---5-------------------------------------------------|
-----------------------------------------------------|
-----------------------------------------------------|

----------------------------0--2---------------------|
---------------------------3-------------------------|
-----7-7-7--5-4-4h5-5-4-2-2--------------------------|
---5-------------------------------------------------|
-----------------------------------------------------|
-----------------------------------------------------|


And the outro is like this:

---------------------------------------------------|
---------------------------------------------------|
-----4-4h5-4-2-4-----------------------------------|
---5-----------------------------------------------|
---------------------------------------------------|
---------------------------------------------------|
            
Submit corrections

comments powered by Disqus
↑ Back to top | Misc Television Tabs for 7th Heaven. Lyrics for acoustic guitar and electric guitar. Tablatures and chords are parodies/interpretations of the original songs. You may use it for private study, scholarship, research or language learning purposes only