» » »

Misc Television, 3rd Rock From The Sun Tabs (ver.2)

Artists:  A B C D E F G H I J K L M N O P Q R S T U V W X Y Z # 

3rd Rock From The Sun Tabs (ver.2)

Misc Television Tabs
Rating:
3/5 (3 votes)
3rd Rock From The Sun lessons Tabs too difficult? Try these video lessons and learn fast
                (Theme)
-------------------------------------------------------------------------------
                3rd Rock From The Sun 
-------------------------------------------------------------------------------

Best sitcom theme ever!

e|---------5s66666--------------------6--6------6--6-----6--6-----6--6--|
B|-----6-8-5s66666--------------------6--6------6--6-----6--6-----6--6--|
G|-5s7-------------8-6----------------7--7------7--7-----7--7-----7--7--|
D|---------------------8------------------------------------------------|
A|----------------------------------------------------------------------|
E|-----------------------18trs6---1s6-------1s6------1s6------1s6-------|

e|-------------------------4v--------------------9p8p6----------6-----6--6--|
B|-------6-8--9-8-6---6v---3v-----------6-8-9-8-----------------6-----6--6--|
G|-5s7-8------------8------3v-----5s7-8----------------8-6h7----7-----7--7--|
D|-------------------------3v--------------------------------8--------------|
A|--------------------------------------------------------------------------|
E|----------------------------------------------------------------1s6-------|

e|-7-6--------------6--6-----6--6---------5s66666----------------4v--|
B|-----7-6----------6--6-----6--6-----6-8-5s66666----------------3v--|
G|---------7-6------7--7-----7--7--5s7-------------8-6-----------3v--|
D|-------------7-6-------------------------------------8---------3v--|
A|-------------------------------------------------------------------|
E|-----------------------1s6-----------------------------18trs6------|

| s  slide
| v  vibrato
| p  pull-off
| tr tremolo picking
| h  hammer on
===============================================================================
            

comments powered by Disqus
↑ Back to top | Misc Television Tabs for 3rd Rock From The Sun. Lyrics for acoustic guitar and electric guitar. Tablatures and chords are parodies/interpretations of the original songs. You may use it for private study, scholarship, research or language learning purposes only