» » »

30 Rock - Jenna Maroney Balls Tabs (ver.1)

Artists:  A B C D E F G H I J K L M N O P Q R S T U V W X Y Z # 

30 Rock - Jenna Maroney Balls Tabs (ver.1)

Misc Television
Rating:
0/5 (0 votes)

Hard to play? Try these video lessons and learn fast.
                jenna maroney - balls     season 7 episode 2


30 rock






2 steps down

:----------------------------------------------------|
:----------------------------------------------------|
:----------------------------------------------------|
:----------------------------------------------------|
:-----------2--2-2-2------------------2--2-2-2-------|
:-2-2--5-5------------5--0--2-2--5-5------------5--0-|

:----------------------------------------------------|
:----------------------------------------------------|
:----------------------------------------------------|
:----------------------------------------------------|
:-----------2--2-2-2------------------2--2-2-2-------|
:-2-2--5-5------------5--0--2-2--5-5------------5--0-|

:----------------------------------------------------|
:----------------------------------------------------|
:----------------------------------------------------|
:----------------------------------------------------|
:-----------2--2-2-2------------------2--2-2-2-------|
:-2-2--5-5------------5--0--2-2--5-5------------5--0-|

:----------------------------------------------------|
:----------------------------------------------------|
:----------------------------------------------------|
:----------------------------------------------------|
:-----------2--2-2-2------------------2--2-2-2-------|
:-2-2--5-5------------5--0--2-2--5-5------------5--0-|



hillo son mex

14/10/12
            
Hard to play? Try these video lessons and learn fast. | Correct




comments powered by Disqus
↑ Back to top | Tablatures and chords are parodies/interpretations of the original songs. You may use it for private study, scholarship, research or language learning purposes only