» » »

Misc Television, 2 Broke Girls - Tabs (ver.1)

Artists:  A B C D E F G H I J K L M N O P Q R S T U V W X Y Z # 

2 Broke Girls - Tabs (ver.1)

Misc Television Tabs
 Rating:
4/5 (4 votes)
2 Broke Girls - lessons Tabs too difficult? Try these video lessons and learn fast
                (Theme)
theme song     
written by Peter Bjorn and John - Second Chance



2 broke girls










   *intro*                                                
e:----------0---------------3------------------3----|
B:----------0---------------0--1---------------0--1-|
G:----------0---------------0--0---------------0--0-|
D:----------2---------------0--2---------------0--2-|
A:-0-2-0----2---------------2--3---------------2--3-|
E:-------3--0--0-0-0-0-0-0--3-----0-0-0-0-0-0--3----|

e:--------------3--0--3--0--|
B:--------------0--1--0--1--|
G:--------------0--2--0--2--|
D:--------------0--2--0--2--|
A:--------------2--0--2--0--|
E:-0-0-0-0-0-0--3-----3-----|

e:-0----------------------------------------------------------|
B:-0----------------------------------------------------------|
G:-0----------------------------------------------------------|
D:-2----------------------------------------------------------|
A:-2----------------------------------------------------------|
E:-0----------------------------------------------------------|


  *ending credits*

e:-0-----3-3----3-------3----7---7----7-----3-----0-0--3-3-3-3-3-3-|
B:-0--1--0-0----3--1----0----8---8------8---0--1--0-0--0-0-0-0-0-0-|
G:-0--0--0-0----0--0--0-0----7---7----------0--0--0-0--0-0-0-0-0-0-|
D:-2--2--0-0----0--2--0-0------9----9-------0--2--2-2--0-0-0-0-0-0-|
A:-2--3--2-2----2--3--2-2-------------------2--3--2-2--2-2-2-2-2-2-|
E:-0-----3-3----3-----3-3-------------------3-----0-0--3-3-3-3-3-3-|

e:-3--0----------------|
B:-0--0--1-1---1--1----|
G:-0--0--0-0---0--0----|
D:-0--2--2-2---2--2----|
A:-0--2--3-3---3--3----|
E:-3--0----------------|

e:-3--0--3-3-----------------------3-|
B:-0--0--0-0-----------------------0-|
G:-0--0--0-0-----------------------0-|
D:-0--2--0-0---9--7h9p7------------0-|
A:-0--2--2-2-----------------------2-|
E:-3--0--3-3------------10-7-8-10--3-|




hillo son mex

15/10/12
            
Submit corrections

comments powered by Disqus
↑ Back to top | Misc Television Tabs for 2 Broke Girls -. Lyrics for acoustic guitar and electric guitar. Tablatures and chords are parodies/interpretations of the original songs. You may use it for private study, scholarship, research or language learning purposes only