» » »

Misc Soundtrack, Top Gun Tabs (ver.1)

Artists:  A B C D E F G H I J K L M N O P Q R S T U V W X Y Z # 

Top Gun Tabs (ver.1)

Misc Soundtrack Tabs
Rating:
0/5 (0 votes)
Top Gun lessons Tabs too difficult? Try these video lessons and learn fast
                Riff 1

E---------------------------------------------------------------------------
B---------------------------------------------------------------------------
G-------12-12----10-9-10-9-------------------9---------9-10-9-----9---------
D--10-------------------------12-12----10-12------12-----------10-----12-12
A---------------------------------------------------------------------------
E---------------------------------------------------------------------------

Riff 2 

E----------9-------7-6-7-6------------------6------6-7----6-----6-------------
B-------------------------------9-9----7-9-----9---------------7------9-9-----
G-----11----------------------------------------------------------------------
D-----------------------------------------------------------------------------
A-----------------------------------------------------------------------------
E-----------------------------------------------------------------------------


The basic Progression is Riff 1
		           Riff 2
		           Riff 1
		           Riff 2……etc…..

The endings vary to accompany to music, so just vary them, they are in the
same key so it should be relatively simple.  

Solo…

The solo in this song is not established, it is a free solo.  If you heard it
live 3 times, it would be different each time, however, the rhythm guitar is
as follows…

E---------------------------------------------------------------------------
B---------------------------------------------------------------------------
G---------------------------------------------------------------------------
D---------------------------------------------------------------------------
A---10-----8------7-5-3-----------------------------------------------------
E-----8-----6------5-3-1----------------------------------------------------

Those are the chords, you will just have to get the rhythm of it off the CD.
 Enjoy!

Jason L.
            

comments powered by Disqus
↑ Back to top | Misc Soundtrack Tabs for Top Gun. Lyrics for acoustic guitar and electric guitar. Tablatures and chords are parodies/interpretations of the original songs. You may use it for private study, scholarship, research or language learning purposes only