>
 >
Suspense And Espionage

Suspense And Espionage Guitar Tabs

Misc Soundtrack - Suspense And Espionage chords, tabs, tablatures, lyrics

Guitar lessons | Add/correct | Request | Top 50 tabs Artists:  A B C D E F G H I J K L M N O P Q R S T U V W X Y Z 0-9

Suspense And Espionage Guitar Tabs – Misc Soundtrack

CD, Sheet music, Poster

Do you like Suspense And Espionage? Share with your friends now
Tabs
10 "Suspense & Espionage" Tunes

None of these tabs are ment to be 100% accurate or complete,
These are all just short riffs, for having fun.
Let's start with some classics:


1. James Bond Theme

e|-----------------------------------------------------------------
B|-----------------------------------------------------------------
G|-----------------------------------------------------------------
D|-----------------------------------------------------------------
A|-----------------------------------------------------------------    
E|-0-22222-0-0h3-333330-0h222220-0h33333-------------------------

(not the 22.222nd fret, just strum quickly)
     
e|----------------------------------------------------------------
B|----------------------------------------------------------------
G|----------------------------------------------------------------
D|---------------------------1-0----------------------------------
A|-------------------------------2-0-2----------------------------
E|-0-22222-0-0h3-333330-0---------------------------------------


2. Peter Gunn Theme

e|----------------------------
B|----------------------------
G|----------------------------
D|----------------------------
A|-1h2-2-2-2p1-(4x)-----------
E|----------------------------

e|--------------------------------------------------------------------
B|--------------------------------------------------------------------
G|--------------------------------------------------------------------
D|--------------------------------------------------------------------
A|---------------------------------0-0-2-0-3-0-5-4--------------------
E|-0-0-2-0-3-0-5-4---(repeat)-----------------------------------------


3. Mission Impossible Theme


e|------------------------------------------------------------------
B|------------------------------------------------------------------
G|------------------------------------------------------------------
D|-------------2-4--------------------------------------------------
A|-4-4-4-4-4-4-----4-4-4-4-4-2-3-(repeat)---------------------------
E|------------------------------------------------------------------


e|-17-14------17-14------17-14------17-14---------------------------
B|-------14~--------13~--------12~---------15-15-15-14--------------
G|------------------------------------------------------------------
D|------------------------------------------------------------------
A|------------------------------------------------------------------
E|------------------------------------------------------------------


4. Inspector Gadget Theme

e|-------------------------------------------
B|-------------------------------------------
G|-------------------------------------------
D|-------------------------------------2-1---
A|--------0-2----1---0----------0--2---------
E|--0-2-3-----3----2---3--0-2-3--------------


5. Twilight Zone Theme


e|--12-13-12-----12-13-12----12-13-12-----------------------
B|-----------12-----------12--------------------------------
G|----------------------------------------------------------
D|----------------------------------------------------------
A|----------------------------------------------------------
E|----------------------------------------------------------


6. Pink Panther Theme


e|-----------------------------------------------------------------------
B|-----------------------------------------------------------------------
G|--------------------------5-4---0-7-6----------------------------------
D|--1-2----4-5-----1-2-4-5-----------------2-0-2-------------------------
A|-----------------------------------------------------------------------
E|-----------------------------------------------------------------------


7. The X-Files Theme


e|----------------------------------------------------
B|---------------12------------15-14-12----12---------
G|-----11--9--11----11--(2x)------------11----11------
D|--9-------------------------------------------------
A|----------------------------------------------------
E|----------------------------------------------------


8. Green Day - Espionage


  Em
e|-0~-----
B|-0~-----  
G|-0~-----  Use an upstroke (strum all strings "backwards")
D|-2~-----
A|-2~-----
E|-0~-----


e|------------------------------------
B|------------------------------------ 
G|------------------------------------
D|------------------------------------
A|---------2-2---1--1--0---0-0--------
E|-0-0-3-3-----3---------3-----3-2----

e|-----------------------------------
B|-----------------------------------
G|-----------------------------------
D|---------2-2---1--1--0---0-0-------
A|-0-0-3-3-----3---------3-----3-2---
E|-----------------------------------


     B5           C5         B5          C5
e|----------------------------------------------------
B|----------------------------------------------------
G|------4-----------5-----------4-----------5---------
D|----4---4-------5---5-------4---4-------5---5-------
A|---2-----2--0--3-----3--0--2-----2--0--3-----3--0---
E|----------------------------------------------------


   B5             B5         C5                Eb5
e|---------------------------------------------------------------
B|---------------------------------------------------------------
G|----4-------------4--------------------------------------------
D|--4---4---------4---4--------5---5---5---5----8---8---8---8----
A|-2-----2--2-2--2-----2-2---3---3---3---3----6---6---6---6------
E|---------------------------------------------------------------


9. The Living End - Bloody Mary

    E5
e|---------------------------------------
B|---------------------------------------
G|---------------------------------------
D|--2--2---------------------------------
A|--2--2--0-1-2-2-1---1-1-0-----0-0------
E|--0--0------------3--------3------3-2--



10. "Suspense Riff"

e|---------------------------------
B|---------------------------------
G|-----2-----------2---------------
D|-2-3---3-----2-3---3-------------
A|---------------------------------
E|---------------------------------

(Slowly at first, but play faster and faster)

Enjoy!

 - Robbeknol





Comments


Popular Misc Soundtrack tabs & chords
Dr Horribles Sing-along Blog - So They Say Bass Tabs
Best Two Years Theme Chords
Buffy The Vampire Slayer - Walk Through The Fire Chords
Dr Horribles Sing-along Blog - My Eyes On The Rise Chords
Frida - El Antifaz Chords
Kamen Rider Black - Long Long Ago 20th Century Chords
Heartbreak High Theme Tabs
James Bond Theme 4 Tabs
Local Hero 1 Tabs
At The Circus Theme Ukulele


Song lyrics



↑ Back to top | Tablatures and chords are parodies/interpretations of the original songs. You may use it for private study, scholarship, research or language learning purposes only
© 2014 AZChords.com Contact us | Privacy policy | DMCA | Add/correct tabs | Request tabs | Top 50 tabs