» » »

Misc Soundtrack, Storybook Love Tabs (ver.1)

Artists:  A B C D E F G H I J K L M N O P Q R S T U V W X Y Z # 

Storybook Love Tabs (ver.1)

Misc Soundtrack Tabs
Rating:
0/5 (0 votes)
Hard to play? Try these video lessons and learn fast.
                I noticed a couple of people asking for TAB of the theme for Princess
Bride.  I wore out my tape awhile ago, but here is what I remember of
the accoustic part.  It's not exact by any means, but should be fairly
close.


  SECTION A          sl     slowly
e:0--0--0-----1--1--1/3-0-----------------0-----0-----------------0-------4--|
B:---------1------------------------1--------1-----1--3-----3--------3--1----|
G:-------------------------------0-----------------------0-----0-------------|
D:----------------------------2----------------------------------------------|
A:-------------------------3-----------3-------------------------------------|
E:---------------------------------------------------------------------------|




                              quickly                              SECTION B
e:---0--0--0--0-----1--1/3--0-----0-----0-----0-----------------------5-----5|
B:---------------1---------------1---1-----1-----1--3--3--1--3--5--6-----6---|
G:------------------------------0----------------------------------5----6----|
D:-----------------------------2---------------------------------------------|
A:3---------------------------3----------------------------------------------|
E:---------------------------------------------------------------------------|




                                            h     quickly
e:--5-----6--6-----5-----------5-----5----------5--------5-----5--5-----6--6-|
B:-----6--------6-----8--6---6----6-----6--6-8--------6-----6--------6-------|
G:---------------------------5-----------4-----------5-----------------------|
D:--------------------------------------------------7------------------------|
A:-------------------------------------------------8-------------------------|
E:---------------------------------------------------------------------------|




                                            SECTION C (same as B, 3 frets low
e:----5-----------5-----5-------------------2-----2-----3--3-----2-----------|
B:-6-----8--6--6-----6-----6--8--8-----10--3---3-----3--------3-----5--3-----|
G:-------------5--------------------7----------------------------------------|
D:---------------------------------------------------------------------------|
A:---------------------------------------------------------------------------|
E:---------------------------------------------------------------------------|




  er)
e:-----------10---|
B:-----------10---|
G:-----------11---|
D:-----------12---|
A:-----------12---|
E:-----------10---|
            

comments powered by Disqus
↑ Back to top | Misc Soundtrack Tabs for Storybook Love. Lyrics for acoustic guitar and electric guitar. Tablatures and chords are parodies/interpretations of the original songs. You may use it for private study, scholarship, research or language learning purposes only