>
 >
Star Wars

Star Wars Guitar Tabs

Misc Soundtrack - Star Wars chords, tabs, tablatures, lyrics

Guitar lessons | Add/correct | Request | Top 50 tabs Artists:  A B C D E F G H I J K L M N O P Q R S T U V W X Y Z 0-9

Star Wars Guitar Tabs – Misc Soundtrack

CD, Sheet music, Poster

Do you like Star Wars? Share with your friends now
TabsTabs v2
e-----------------3---------3------------|
B---------3-1-0-----3-1-0-----3-1-0-1----|
G-------0-------2---------2-----------2--|  


Music by John Williams

This is what my friend Ryan and I picked up sitting in guitar class
one day long ago.. (In a classroom very very far away!)

"EMPIRE theme"

e|-------------------|--------------------------|-------------------|------         
B|-------------------|--------------------------|-------------------|------
G|-------------------|--------------------------|-2-----3-2-1-0---0-|------
D|-------------------|-2-2-2-3-0----------------|---0-0---------4---|------
A|-0-0-0---3-0---3-0-|-----------3---3-0---3-0--|-------------------|------
E|-------1-----1-----|-------------1-----1------|-------------------|------

e|-------------|------------------||---------------------------------------         
B|-------------|------------------||---------------------------------------
G|-------------|------------------||---------------------------------------
D|-0-5-4-3-212-|------------------||---------------------------------------
A|-------------|---0---3-0---3-0--||---------------------------------------
E|-------------|-1---1-----1------||--------------------------------------

"Luke Skywalker theme" 

(Played while Luke gazes out upon the two moons on his home
planet of Tatooine sometime after the beginning of A New Hope)

I figured out this one on my own so take that Ryan!.. ;)

NOTE: Play this slowly and fluidly like it is played in the film

  bar 5&6 string w.index          bar 5&6 string again
   |                              |
e|-----3----5-----6h8--6-------|------3---5-3-6------10/12----10-10-10-----         
B|-3-3----------------------3--|--3 3-----------3--------------------------
G|-----------------------------|-------------------------------------------
D|-----------------------------|-------------------------------------------
A|-----------------------------|-------------------------------------------
E|-----------------------------|-------------------------------------------

e|-----3---5-3-6----10----|-3-3--10-8-6-5-3--3--/10--||         
B|-3-3-----------3--------|--------------------------||
G|------------------------|--------------------------||
D|------------------------|--------------------------||
A|------------------------|--------------------------||
E|------------------------|--------------------------||

Well that's all I can remember now, but if I watch the movie again,
I'll try figuring out the rest!

Brian

--------------------
"A jedi's strength flows from the force" Ben

    .                          .                              .
 .             o88888888888888  d88b  .  8888888b.  .                   .
       .  .    Y8888b  888    88888888   888  Y8b___________________________
:::::::::88888888888P  888   d8P    Y8b  888   Y888888::::::''''''''''':::::
:::::::::(                                           )::::::  M  U  D  :::::
:::::::::Y8b  d88b  d8P  d88b   . 8888888b.  o88888888::::::...........:::::
""""""""""88ij8888ij88' j8PY8i    888   )88  Y8888b           .
  .      .  Y8'  "8P  d8P    Y8b  888   Y888888888P                       .





Comments


Popular Misc Soundtrack tabs & chords
Halloween Theme Bass Tabs
James Bond Theme Bass Tabs
Batman Theme 3 Tabs
Evangelion - Cruel Angels Thesis Tabs
Ghostbusters Ii Tabs
Jackass Theme 1 Tabs
Matrix Theme Tabs
Nightmare Before Christmas Intro Tabs
A Mighty Wind - When Youre Next To Me Ukulele
Brug Dit Hjerte Som Telefon - Hannibal Og Jerry Ukulele


Song lyrics



↑ Back to top | Tablatures and chords are parodies/interpretations of the original songs. You may use it for private study, scholarship, research or language learning purposes only
© 2014 AZChords.com Contact us | Privacy policy | DMCA | Add/correct tabs | Request tabs | Top 50 tabs