>
 >
Schindlers List 1

Schindlers List 1 Guitar Tabs

Misc Soundtrack - Schindlers List 1 chords, tabs, tablatures, lyrics

Guitar lessons | Add/correct | Request | Top 50 tabs Artists:  A B C D E F G H I J K L M N O P Q R S T U V W X Y Z 0-9

Schindlers List 1 Guitar Tabs – Misc Soundtrack

CD, Sheet music, Poster

Do you like Schindlers List 1? Share with your friends now
TabsTabs v2
John Williams - theme from Schindler's list

This is one of my favorites indeed, it's the theme from Spielbergs masterpiece, shindler's list, which I've arranged for guitar.

Have fun!

NB: I've now started a mailinglist os classical tabs. If you sign up, you'll get one free transcription every week, just gimmie a mail for signing up or requests!

J=52
                    A5                          Dm                 
|-------------------|-------|-5-----------------------
|-------------------|-------|-6-----------------------
|-------------------|-------|-7-------------7---------
|-2-----------------|-7-----|-------------------------
|-0-----------------|-------|-------------------------
|-------------------|-------|-------------------------
                  6                   7       8                    

                                A#                   F          
5---------6----5--------------|-----------------3----5-------|----------
--------------------6---------|-6----------6----5----6-------|----------
-----7------------------------|-7-----0---------0----5-------|----------
-------------------------7----|-8--------------------------3-|----------
------------------------------|------------------------------|----------
------------------------------|------------------------------|----------
                              9                              10 

Dm                                                                 
5------------5---------8-------6----5---------|---------------0---------
6----------------------------------------8----|--1----------------------
7-------7---------7----7----------------------|--3-------3--------------
-----------------------5----------------------|-------------------------
----------------------------------------------|--3----------------------
----------------------------------------------|-------------------------
                                              11                   

     F11                        Gm                     D5         
3----6-------5-----3---------|--3------------3---------5-----3----------
------------------------6----|--3----------------------3----------------
-----5-----------------------|--3-------3---------3----2----------------
-----3-------7---------------|------------------------------------------
-----------------------------|------------------------------------------
-----------------------------|--3------------3---------0----------------
                             12                                   

              FM7                                         Gm           
1-----3----|--5----------------------------0-----1-----|--3-------------
2----------|--6------------------3---------------------|--3-------------
-----------|--9-----------------------2----------2-----|--3-------3-----
-----------|---------------------3---------------------|----------------
-----------|----------------0--------------------------|----------------
-----------|-------------------------------------------|----------------
           13                                          14              

           E7sus4       A+                                     Gm7     
3----------5-----------------------|----------0-------------|--1--------
-----------5-------8----6-----5----|--3-------3-------2-----|--3--------
3-----3----7------------6----------|--3-------2-------------|--3--------
-----------------------------------|------------------------|-----------
-----------7------------0----------|--1-------0-------------|-----------
-----------------------------------|------------------------|--3--------
                                   15                       16         

                                                                      
-----1---------5-------3----1-----0----|--1----------0-------5-----|----
-----3---------5------------2----------|--3----------3-------------|----
0----3----0----7-----------------------|---------------------6-----|----
---------------------------------------|--0------------------------|----
---------------0-----------------------|---------------------------|----
-----3---------------------------------|---------------------------|----
                                       17                          18 

                                              A#5                    
17----------17--------18---17--------------|--------------------15------
-------15--------15--------------18--------|--18-----------18-----------
-------------------------------------------|--15------------------------
15--------------------20---19---------19---|----------17----------------
-------------------------------------------|--------------------15------
-------------------------------------------|----------------------------
                                           19                        

                 D5/D                                             
17------------|--17-----------17----------------18---17---15---|--------
--------------|--15------15--------15---15---------------------|--------
--------------|------------------------------------------------|--------
19------------|--0---------------------------------------------|--------
15------15----|------------------------------------------------|--------
--------------|---------------------------------18-------------|--------
              20                                               21 

                                                                   
-------------12---15---18------17---15---13---|--15-----------15--------
13--------------------------------------------|-------------------------
15------15-------------17---------------------|--15------15-------------
-----------------------15---------------------|--17---------------------
15--------------------------------------------|-------------------------
----------------------------------------------|--0----------------------
                                              22                   

                                    *              
15---17------15---13----15---|--17---------|--3------------ 
15----------------14---------|--15---------|--3------------
-----17----------------------|--14---------|--3----3------- 
17---19----------------------|-------------|-------5------- 
-----0-----------------------|-------0-----|---------------
0----------------------------|-------------|--3------------ 
                     
                                                              .-.
           E7sus4       A+                                     *
3----------5-----------------------|----------0-------------|--5  
-----------5-------8----6-----5----|--3-------3-------2-----|--6 
3-----3----7------------6----------|--3-------2-------------|--7  hold notes
------5----------------------------|------------------------|--7
-----------7------------0----------|--1-------0-------------|--5 
3----------------------------------|------------------------|--5





Comments


Popular Misc Soundtrack tabs & chords
Magic Roundabout Theme Bass Tabs
Do You Wanna Build A Snowman Chords
Its Always Sunny In Philadelphia - Day Man Chords
Bad Boys Intro Tabs
Castle Theme Tabs
Gladiator - Honor Him Tabs
Godfather Tabs
Godfather Theme 7 Tabs
Lord Of The Rings Theme 4 Tabs
Annie - Maybe Ukulele


Song lyrics



↑ Back to top | Tablatures and chords are parodies/interpretations of the original songs. You may use it for private study, scholarship, research or language learning purposes only
© 2014 AZChords.com Contact us | Privacy policy | DMCA | Add/correct tabs | Request tabs | Top 50 tabs