» » »

Misc Soundtrack, Princess Bride Tabs (ver.1)

Artists:  A B C D E F G H I J K L M N O P Q R S T U V W X Y Z # 

Princess Bride Tabs (ver.1)

Misc Soundtrack Tabs
 Rating:
4/5 (4 votes)
Princess Bride lessons Tabs too difficult? Try these video lessons and learn fast
                This is the theme to The Princess Bride.  I dedicate it to Lisa because if you didn’t notice how cool it sounded I would have never tried to figure it out

         -   Doug


e  ----------------------------------------------------------------------------
B  ---------------------------------------------------------------------------- 
G  –9-9-9-----10-10-10/12–9-------------------9-----9--------------9-----------
D  --------10------------------------------10----12—---10-12–12--------12-10---
A  -------------------------------10-------------------------------------------
E  ----------------------------------------------------------------------------

e  --------------------------------------------------------
B  --------------------------------------------------------
G  –9--—9-------10-10-10/12–9-------9-----9----------------
D  -10-10–10---------------------10--—12-----10–12–10-10--- 
A  --------------------------------------------------------
E  --------------------------------------------------------

e  -----------------------------------------------------------------------------
B  –10–10–10------11–11–11–13\11–10-------------10----10---10------------10–10--
G  -----------10--------------------10-------10----12----------10–12–12---------
D  -----------------------------------------------------------------------------
A  -----------------------------------------------------------------------------
E  -----------------------------------------------------------------------------

e  ---------------------------------------------------------------------
B  –---10-10-----11–11--11-–10------------------------------10---------- 
G  -10–10-10-10–-10–10--10-----12–10------------------------------9--9--
D  -10-------10----------------------------12----------12---------------
A  --------------------------------------------12–12--------------------
E  ---------------------------------------------------------------------

e  ------------------------------------------------------------------
B  ------------------------------------------------------------------
G  –11–9–11------12–12–12/14–11---------11-11------9--9--11–9--------
D  -----------12----------------------12--------12-------------12----
A  ------------------------------------------------------------------
E  ------------------------------------------------------------------

e  -----------------------------------------------------------------
B  -----------------------------------------------------------------
G  –11--11--11------12–12/14–11------------11–9–11------9-----------
D  –12--12--12–-12-----------------------12----------12------12–12--
A  -----------------------------------------------------------------
E  -----------------------------------------------------------------

e  -------------------------------------------------------------------------------
B  –12----12------13–13–13–12-----------------12------12–12--------------12–12----
G  –12–12–12–12----------------14–12--------------14---------12----14-------------
D  ----------------------------------------12-------------------------------------
A  -------------------------------------------------------------------------------
E  -------------------------------------------------------------------------------

e  ------------------------------------------------------------------------------
B  –12–12–12–12------13–13-13–12-------------------------------------------------
G  --------------12---------------14–12--------11–9–11–11------12–12–12/14–11----
D  --------------------------------------------------------12--------------------
A  ------------------------------------------------------------------------------
E  ------------------------------------------------------------------------------

e   --------------------------------------------------------
B  ---------------------------------------------------------
G  –11–11h14–11–11--------9------------9--------------------
D  -----------------12------------------------------12------
A  ---------------------------------------------------------
E  ---------------------------------------------------------

             "STOP IT, I MEAN IT" 
             "ANY BODY WANNA PEANUT?"
            
Submit corrections

comments powered by Disqus
↑ Back to top | Misc Soundtrack Tabs for Princess Bride. Lyrics for acoustic guitar and electric guitar. Tablatures and chords are parodies/interpretations of the original songs. You may use it for private study, scholarship, research or language learning purposes only