» » »

Misc Soundtrack, Metal Core Thrash - James Bond Tabs (ver.1)

Artists:  A B C D E F G H I J K L M N O P Q R S T U V W X Y Z # 

Metal Core Thrash - James Bond Tabs (ver.1)

Misc Soundtrack Tabs
 Rating:
4/5 (4 votes)
Metal Core Thrash - James Bond lessons Tabs too difficult? Try these video lessons and learn fast
1
                legend:
S= fast pick 4 times
B= Bend
H= Hammer on
P= Pull off
/= Slide
E-------------------------------|
B-------------------------------|
G-------------------------------|
D-------------------------------|
A--2--3--4--3--2--3--4--3-------|
E---0--0--0--0--0--0--0--0  <---|let it ring

E----------------------------------------------------|
B----------------------------------------------------|
G----------------------------------------------------|
D----------------------------------------------------|
A--2--0--3--0--4--0--3--0--2--0--3--0--4--0--3--0----|
E--2--0--3--0--4--0--3--0--2--0--3--0--4--0--3--0----|

next part is more metal :P

E----------------------------|
B----------------------------|
G----------------------------|
D----------------------------|
A--0--S2--0-0-0--S3--2-2-2---|
E--0--S2--0-0-0--S3--2-2-2---|  X2


E---------------------|
B---------------------|
G---------------------|
D---------------------|
A---------------------|
E-0-3/6-B5-0----------|H3P

And there you have it folks! A decent metalcore/thrash cover of 2 james bond themes its
but its just meant to be :P. You may want to add slides and such into certain places to
:P (just like cookery) because it is such an allowing tab although you have to be a
lead for it anyway to cut it short its my first tab if there is any problems e-mail me
            
Submit corrections

comments powered by Disqus
↑ Back to top | Misc Soundtrack Tabs for Metal Core Thrash - James Bond. Lyrics for acoustic guitar and electric guitar. 1 Tablatures and chords are parodies/interpretations of the original songs. You may use it for private study, scholarship, research or language learning purposes only