» » »

Misc Soundtrack, Mash Tabs (ver.2)

Artists:  A B C D E F G H I J K L M N O P Q R S T U V W X Y Z # 

Mash Tabs (ver.2)

Misc Soundtrack Tabs
Rating:
0/5 (0 votes)
Mash lessons Tabs too difficult? Try these video lessons and learn fast
                (Theme)
#This OLGA file is the author's own work and represents their interpretation  #
#research. Remember to view this file in Courier, or some other monospaced    #



January 20 2001
        I dont actually watch but Ive been told its REALLY good 

M*A*S*H*

Bm                             G              G6 (open)
|----------------------------|---5--3--2--3--2--3--2--0---|
|--------3--2---------3--2---|----------------------------|
|------4------------4--------|----------------------------|
|----4------------4----------|----------------------------|
|--2------------2------------|----------------------------|
|----------------------------|----------------------------| 

D             D6 (bar 7fr)      Bm          Bm9 (bar 2fr)
|--2--0--2--0--2--0-------|---2--0-----0-----0---------|
|--------------------3----|---------3-----3-----3--2---|
|-------------------------|----------------------------|
|-------------------------|----------------------------|
|-------------------------|----------------------------|
|-------------------------|----------------------------|    
D                           (D)
|-------------------0--2--|-----(2)--------------------|
|----3--2--3--2--3--------|----------------------------|
|-------------------------|----------------------------|
|-------------------------|----------------------------|
|-------------------------|----------------------------|
|-------------------------|----------------------------|    

G (bar 7fr)                     G (bar 7fr)
|--5---7--5--7--5--7--5---|--7--5--7--5--7--5----------|
|-------------------------|----------------------------|
|-------------------------|----------------------------|
|-------------------------|----------------------------|    
|-------------------------|----------------------------|
|-------------------------|----------------------------|
D        G       D          Bm
|---------7--10--12--10---|----7----5----7-------------|
|--7--10------------------|----------------------------|
|-------------------------|----------------------------|
|-------------------------|----------------------------|    
|-------------------------|----------------------------|
|-------------------------|----------------------------|

G              G6 (open)        D          D6 (bar 7fr)    
|---5--3--2--3--2--3--2--0---|--2--0--2--0--2--0-------|
|----------------------------|--------------------3----|
|----------------------------|-------------------------|
|----------------------------|-------------------------|
|----------------------------|-------------------------|
|----------------------------|-------------------------|

Bm          Bm9 (bar 2fr)        D                 (D)
|---2--0-----0-----0---------|-------------------0--2--|
|--------3-----3-----3--2----|----3--2--3--2--3--------|
|----------------------------|-------------------------|
|----------------------------|-------------------------|
|----------------------------|-------------------------|
|----------------------------|-------------------------|

G (7bar fr)                  G (bar 7fr)
|--5---7--5--7--5--7--5---|--7--5--7--5--7--5----------|
|-------------------------|----------------------------|
|-------------------------|----------------------------|
|-------------------------|----------------------------|    
|-------------------------|----------------------------|
|-------------------------|----------------------------|

D        G       D          Bm
|---------7--10--12--10---|----7----5----7-------------|
|--7--10------------------|----------------------------|
|-------------------------|----------------------------|
|-------------------------|----------------------------|    
|-------------------------|----------------------------|
|-------------------------|----------------------------|
D        G       D          Bm
|-------------7----10---12|---10----7----5----7--------|
|--7----10----------------|-------------------7--------|
|-------------------------|-------------------7--------|
|-------------------------|-------------------7--------|    
|-------------------------|----------------------------|
|-------------------------|----------------------------|


A Fresh tab by Dougie Fresh
            

comments powered by Disqus
↑ Back to top | Misc Soundtrack Tabs for Mash. Lyrics for acoustic guitar and electric guitar. Tablatures and chords are parodies/interpretations of the original songs. You may use it for private study, scholarship, research or language learning purposes only