» » »

Mash Tabs (ver.1)

Artists:  A B C D E F G H I J K L M N O P Q R S T U V W X Y Z # 

Mash Tabs (ver.1)

Misc Soundtrack
Rating:
0/5 (0 votes)

Hard to play? Try these video lessons and learn fast.
                (Theme)
By neol2011

M*A*S*H 4077 Theme 

                                           
|----------------------------|---5--3--2--3--2--3--2--0---|
|--------3--2---------3--2---|----------------------------|
|------4------------4--------|----------------------------|
|----4------------4----------|----------------------------|
|--2------------2------------|----------------------------|
|----------------------------|----------------------------| 

                              
|--2--0--2--0--2--0-------|---2--0-----0-----0---------|
|--------------------3----|---------3-----3-----3--2---|
|-------------------------|----------------------------|
|-------------------------|----------------------------|
|-------------------------|----------------------------|
|-------------------------|----------------------------|    
                           
|-----------------2--5--7-|----5--7--5--7--5--7--5-----|
|--3--2--3--2--3----------|----------------------------|
|-------------------------|----------------------------|
|-------------------------|----------------------------|
|-------------------------|----------------------------|
|-------------------------|----------------------------|    

                     
|--5---7--5--7--5--7--5---|---------7--10--12--10--7---|
|-------------------------|--7--10---------------------|
|-------------------------|----------------------------|
|-------------------------|----------------------------|    
|-------------------------|----------------------------|
|-------------------------|----------------------------|

|------7-----------7--10--|--12--10--7------7----------|
|--10-------7--10---------|-------------10--7----------|
|-------------------------|-----------------7----------|
|-------------------------|----------------------------|    
|-------------------------|----------------------------|
|-------------------------|----------------------------|

    
|---5--3--2--3--2--3--2--0---|
|----------------------------|
|----------------------------|
|----------------------------|
|----------------------------|
|----------------------------| 

                              
|--2--0--2--0--2--0-------|---2--0-----0-----0---------|
|--------------------3----|---------3-----3-----3--2---|
|-------------------------|----------------------------|
|-------------------------|----------------------------|
|-------------------------|----------------------------|
|-------------------------|----------------------------|    
                           
|-----------------2--5--7-|----5--7--5--7--5--7--5-----|
|--3--2--3--2--3----------|----------------------------|
|-------------------------|----------------------------|
|-------------------------|----------------------------|
|-------------------------|----------------------------|
|-------------------------|----------------------------|    

                     
|--5---7--5--7--5--7--5---|---------7--10--12--10--7---|
|-------------------------|--7--10---------------------|
|-------------------------|----------------------------|
|-------------------------|----------------------------|    
|-------------------------|----------------------------|
|-------------------------|----------------------------|

|------7-----------7--10--|--12--10--7------7----------|
|--10-------7--10---------|-------------10--7----------|
|-------------------------|-----------------7----------|
|-------------------------|----------------------------|    
|-------------------------|----------------------------|
|-------------------------|----------------------------|


Created by neol2011:D
            
Hard to play? Try these video lessons and learn fast. | Correct




comments powered by Disqus
↑ Back to top | Tablatures and chords are parodies/interpretations of the original songs. You may use it for private study, scholarship, research or language learning purposes only