» » »

Misc Soundtrack, Madagascar - I Like To Move It Tabs (ver.1)

Artists:  A B C D E F G H I J K L M N O P Q R S T U V W X Y Z # 

Madagascar - I Like To Move It Tabs (ver.1)

Misc Soundtrack Tabs
Rating:
0/5 (0 votes)
Hard to play? Try these video lessons and learn fast.
                
E|------------|------------|------------|------------|------------|
B|------------|------------|------------|------------|------------| 
G|------------|------------|------------|------------|------------|
D|-0-0-0--3-5-|2-2--1-3-2-4|------------|------------|------------| x10
A|-0-0-0--3-5-|2-2--1-3-2-4|------------|------------|------------|
D|-0-0-0--3-5-|2-2--1-3-2-4|------------|------------|------------|

E|-----------------|-----------------------|------------|
B|-----------------|-----------------------|------------| 
G|-----------------|-----------------------|------------|
D|-----------------|-----------------------|------------| x4
A|-12-12-12--15-17-|14-14--13-15-14-16-----|------------|
D|-12-12-12--15-17-|14-14--13-15-14-16-----|------------|

E|------------|------------|
B|------------|------------| 
G|------------|------------|
D|-0-0-0--3-5-|2-2--1-3-2-4| x4
A|-0-0-0--3-5-|2-2--1-3-2-4|
D|-0-0-0--3-5-|2-2--1-3-2-4|
      x  x  x    x  x    x  x    x  x  x  x 

E|------------|------------|------------|------------|------------|
B|------------|------------|------------|------------|------------| 
G|------------|------------|------------|------------|------------|
D|-0-0-0--3-5-|2-2--1-3-2-4|------------|------------|------------| x8
A|-0-0-0--3-5-|2-2--1-3-2-4|------------|------------|------------|
D|-0-0-0--3-5-|2-2--1-3-2-4|------------|------------|------------|

E|------------|------------|
B|------------|------------| 
G|------------|------------|
D|-0-0-0--3-5-|2-2--1-3-2-4| x4
A|-0-0-0--3-5-|2-2--1-3-2-4|
D|-0-0-0--3-5-|2-2--1-3-2-4|
      x  x  x    x  x    x  x    x  x  x  x 

E|-----------------|-----------------------|------------|
B|-----------------|-----------------------|------------| 
G|-----------------|-----------------------|------------|
D|-----------------|-----------------------|------------| x4
A|-12-12-12--15-17-|14-14--13-15-14-16-----|------------|
D|-12-12-12--15-17-|14-14--13-15-14-16-----|------------|

E|------------|------------|------------|------------|------------|
B|------------|------------|------------|------------|------------| 
G|------------|------------|------------|------------|------------|
D|-0-0-0--3-5-|2-2--1-3-2-4|------------|------------|------------| x4
A|-0-0-0--3-5-|2-2--1-3-2-4|------------|------------|------------|
D|-0-0-0--3-5-|2-2--1-3-2-4|------------|------------|------------|





E|------------|------------|
B|------------|------------| 
G|------------|------------|
D|-0-0-0--3-5-|2-2--1-3-2-4| x4
A|-0-0-0--3-5-|2-2--1-3-2-4|
D|-0-0-0--3-5-|2-2--1-3-2-4|
      x  x  x    x  x    x  x    x  x  x  x 
            

comments powered by Disqus
↑ Back to top | Misc Soundtrack Tabs for Madagascar - I Like To Move It. Lyrics for acoustic guitar and electric guitar. Tablatures and chords are parodies/interpretations of the original songs. You may use it for private study, scholarship, research or language learning purposes only