» » »

Madagascar 2 - Big And Chunky Bass tabs (ver.1)

Artists:  A B C D E F G H I J K L M N O P Q R S T U V W X Y Z # 

Madagascar 2 - Big And Chunky Bass tabs (ver.1)

Misc Soundtrack
Rating:
0/5 (0 votes)

Hard to play? Try these video lessons and learn fast.
                -------------------------------------------------------------------------------
			     Big and Chunky - Will.I.Am
-------------------------------------------------------------------------------


Tuning: Standard

G -------------------------------|
D --4--4----6--6----7--------11~-|
A -------------------------------| x3
E -2--2----4--4----5--5----7-----|
   SP SP   SP SP   SP S    S P

G --------------------------------------|
D --4--4----6--6-------9h10p9-----------|
A -----------------------------11/12--9-|
E -2--2----4--4----5--------------------|
   SP SP   SP SP   S   P       S      S

Just repeat this through the song. There are some minor changes at times but this is the 
idea.

S = Slap
P = Pop
~ = Bend
h = Hammer On
p = Pull Off
/ = Slide Up
            
Hard to play? Try these video lessons and learn fast. | Correct




comments powered by Disqus
↑ Back to top | Tablatures and chords are parodies/interpretations of the original songs. You may use it for private study, scholarship, research or language learning purposes only