» » »

Misc Soundtrack, Lord Of The Rings - The Shire Tabs (ver.3)

Artists:  A B C D E F G H I J K L M N O P Q R S T U V W X Y Z # 

Lord Of The Rings - The Shire Tabs (ver.3)

Misc Soundtrack Tabs
 Rating:
4/5 (4 votes)
Lord Of The Rings - The Shire lessons Tabs too difficult? Try these video lessons and learn fast
                -------------------------------------------------------------------------------
Lord of the rings “The Shire”- Misc. Soundtrack
-------------------------------------------------------------------------------
Tuning:EADGBe
Part 1
e|--------------------------------------------------------------------------|
B|---------------------3--------6---------3---------------------------------|
G|-----3-------5----------------------------------5--------3----------------|
D|--------------------------------------------------------------------------|
A|--------------------------------------------------------------------------|
E|--------------------------------------------------------------------------|

e|--------------------------3--------6---------3----------------------------|
B|-----3--------6-----------------------------------------6---------3-------|
G|--------------------------------------------------------------------------|
D|--------------------------------------------------------------------------|
A|--------------------------------------------------------------------------|
E|--------------------------------------------------------------------------|

e|--------------------------------------------------------------------------|
B|----4p3-------------------------------------------------------------------|
G|---------------5----------------------------------------------------------|
D|--------------------------------------------------------------------------|
A|--------------------------------------------------------------------------|
E|--------------------------------------------------------------------------|

Part 2
e|--------------------------------------------------------------------------|
B|------------------------3--------6--------3-------------------------------|
G|-------3------5--------------------------------------5----------3h5p3-----|
D|--------------------------------------------------------------------------|
A|--------------------------------------------------------------------------|
E|--------------------------------------------------------------------------|

e|----------------------------3---------------------------------------------|
B|-------3--------6--------------------6---------3----------1---------------|
G|--------------------------------------------------------------------------|
D|--------------------------------------------------------------------------|
A|--------------------------------------------------------------------------|
E|--------------------------------------------------------------------------|

repeat part 1 and so on

| h  hammer-on
| p  pull-off
=============================================================================
            
Submit corrections

comments powered by Disqus
↑ Back to top | Misc Soundtrack Tabs for Lord Of The Rings - The Shire. Lyrics for acoustic guitar and electric guitar. Tablatures and chords are parodies/interpretations of the original songs. You may use it for private study, scholarship, research or language learning purposes only