» » »

Misc Soundtrack, Lord Of The Rings Tabs (ver.11)

Artists:  A B C D E F G H I J K L M N O P Q R S T U V W X Y Z # 

Lord Of The Rings Tabs (ver.11)

Misc Soundtrack Tabs
Rating:
0/5 (0 votes)
Lord Of The Rings lessons Tabs too difficult? Try these video lessons and learn fast
                (Theme)
This is a classical guitar peace, so you must know how to pick with our fingers. I did 
with the name of roofdog7. Here is the video:

Standard Tuning: eBGDAE

e--------0-----3------0-------------------------------0--3------|
B-1--3-----------------------3-------1--------------------------|
G-----------0-----0------0------0-------0----0------------------|
D------------------------------------------2-------2------------|
A--------3---------------------------3----------3---------------|
E---------------------------------------------------------------|

e--5----8---7-----------0--------1p0----------------0-----3-----|
B-----------------8-------------------3--------1h3--------------|
G-----5---5----5-----5--------2--------------0---------0-----0--|
D--3-----------------------2-------------0----------------------|
A-----------------------0---------------------------3-----------|
E-------------------------------------3-------------------------|

e-0---------------------------------0--3---5--------------------|
B-------3-3h5p3--1------------------------------5---------------|
G----0-----------------0----------------------5---5------5------|
D-------------------2-----2------2---------3----------3---------|
A----------------3------------3---------------------------------|
E---------------------------------------------------------------|

e--3-----0--------1p0-------------------------------------------|
B--0--5----------------3----------------------------------------|
G--------------2------------0-----0-----2--0--0-0-2-------------|
D-----------2-------------0---0-----0---2--0------2--0-2-3--2-0-|
A--------0------------------------------0---------0------3------|
E----------------------3-------------------3--------------------|

e-----------------------------------0-1------0-1-3-----0--3---5-|
B--------------------------------3--------3---------------------|
G-------------------2--0--0-0-2---------2-----------0---------5-|
D-----0-2-0---------2--0------2---------------------------------|
A--3----------3--2--0---------0-------0-------------------------|
E--3------3---1--1-----3-------------------------3------------5-|

e--3--3-3-5-----0-1--------0---------0--------------------------|
B--0----------3---------3----3-1---3---3--------1------0--------|
G--0------5----------2---------------------0--------------------|
D--------------------------------2-------0---0------0-----0---2-|
A-----------------0------------3----------------0---------------|
E--3------5----------------------------3------------------------|

e-------------------------------------0--------3-----0----------|
B-----------------------0-------------------------------3-----1-|
G--2---0--0-0--2-----2-----2----1--3-------0------0--------0----|
D--2---0-------2--2---------------------------------------------|
A--0-----------0----------------------3-------------------------|
E------3------------------------------------------------------3-|

e------------------0--3--5-----8------7------3-------0----------|
B---------------------------------------------------------------|
G-----2---------------------5-----5-------0-----0----------0----|
D--3-----3-----2---------3------------------------------2-------|
A----------------------------------------------------3----------|
E-----------0---------------------------------------------------|

e--1p0-----------------0-----3------0---------------------------|
B-------3-------1--3-----------------------3-3h5p3--1-----------|
G----------0---0----------0-----0------0-----------------2------|
D------------0----------------------------------------3----3----|
A----------------------3----------------------------3-----------|
E-------3---------------------------0-------------------------0-|

e----0--3---5--------------------------------------------0------|
B------------------5-------------8--5---3-------------3-----3---|
G---------------5-----5------5-----------------0--------------0-|
D-2---------3-------------3-----------------0-----0-------------|
A---------------------------------------------------------------|
E---------------------------------------3-------------3---------|

e---------------------------------------------------------------|
B--1-----------1------------------------------------------------|
G-----2-2--0---0------------------------------------------------|
D--------------2------------------------------------------------|
A--0-----------3------------------------------------------------|
E---------------------------------------------------------------|
            

comments powered by Disqus
↑ Back to top | Misc Soundtrack Tabs for Lord Of The Rings. Lyrics for acoustic guitar and electric guitar. Tablatures and chords are parodies/interpretations of the original songs. You may use it for private study, scholarship, research or language learning purposes only